999
DXF created from QGIS
  0
SECTION
  2
HEADER
  9
$ACADVER
  1
AC1015
  9
$EXTMIN
 10
-696197.77208969590719789
 20
-325458.08696442854125053
  9
$EXTMAX
 10
493176.61375540040899068
 20
285688.55895116238389164
  9
$LTSCALE
 40
1.0
  9
$PDMODE
 70
    33
  9
$PDSIZE
 40
     1
  9
$PSLTSCALE
 70
     0
  9
$HANDSEED
  5
9999999
  9
$DWGCODEPAGE
  3

  0
ENDSEC
  0
SECTION
  2
TABLES
  0
TABLE
  2
LTYPE
  5
64
100
AcDbSymbolTable
 70
     5
  0
LTYPE
  5
65
100
AcDbSymbolTableRecord
100
AcDbLinetypeTableRecord
  2
ByLayer
 70
    64
  3
Defaultstyle
 72
    65
 73
     0
 40
0.0
  0
LTYPE
  5
66
100
AcDbSymbolTableRecord
100
AcDbLinetypeTableRecord
  2
ByBlock
 70
    64
  3
Defaultstyle
 72
    65
 73
     0
 40
0.0
  0
LTYPE
  5
67
100
AcDbSymbolTableRecord
100
AcDbLinetypeTableRecord
  2
CONTINUOUS
 70
    64
  3
Defaultstyle
 72
    65
 73
     0
 40
0.0
  0
LTYPE
  5
68
100
AcDbSymbolTableRecord
100
AcDbLinetypeTableRecord
  2
DASH
 70
    64
  3

 72
    65
 73
     2
 40
2600.0
 49
2000.0
 74
     0
 49
-600.0
 74
     0
  0
LTYPE
  5
69
100
AcDbSymbolTableRecord
100
AcDbLinetypeTableRecord
  2
DOT
 70
    64
  3

 72
    65
 73
     2
 40
1200.0
 49
600.0
 74
     0
 49
-600.0
 74
     0
  0
LTYPE
  5
6a
100
AcDbSymbolTableRecord
100
AcDbLinetypeTableRecord
  2
DASHDOT
 70
    64
  3

 72
    65
 73
     4
 40
3800.0
 49
2000.0
 74
     0
 49
-600.0
 74
     0
 49
600.0
 74
     0
 49
-600.0
 74
     0
  0
LTYPE
  5
6b
100
AcDbSymbolTableRecord
100
AcDbLinetypeTableRecord
  2
DASHDOTDOT
 70
    64
  3

 72
    65
 73
     6
 40
5000.0
 49
2000.0
 74
     0
 49
-600.0
 74
     0
 49
600.0
 74
     0
 49
-600.0
 74
     0
 49
600.0
 74
     0
 49
-600.0
 74
     0
  0
ENDTAB
  0
TABLE
  2
BLOCK_RECORD
  5
6c
100
AcDbSymbolTable
 70
     0
  0
BLOCK_RECORD
  5
6d
100
AcDbSymbolTableRecord
100
AcDbBlockTableRecord
  2
*Model_Space
  0
BLOCK_RECORD
  5
6e
100
AcDbSymbolTableRecord
100
AcDbBlockTableRecord
  2
*Paper_Space
  0
BLOCK_RECORD
  5
6f
100
AcDbSymbolTableRecord
100
AcDbBlockTableRecord
  2
*Paper_Space0
  0
ENDTAB
  0
TABLE
  2
APPID
  5
70
100
AcDbSymbolTable
 70
     1
  0
APPID
  5
71
100
AcDbSymbolTableRecord
100
AcDbRegAppTableRecord
  2
ACAD
 70
     0
  0
ENDTAB
  0
TABLE
  2
VIEW
  5
72
100
AcDbSymbolTable
 70
     0
  0
ENDTAB
  0
TABLE
  2
UCS
  5
73
100
AcDbSymbolTable
 70
     0
  0
ENDTAB
  0
TABLE
  2
VPORT
  5
74
100
AcDbSymbolTable
  0
VPORT
  5
75
100
AcDbSymbolTableRecord
100
AcDbViewportTableRecord
  2
*ACTIVE
 70
     0
 10
0.0
 20
0.0
 11
1.0
 21
1.0
 12
0.0
 22
0.0
 13
0.0
 23
0.0
 14
1.0
 24
1.0
 15
1.0
 25
1.0
 16
0.0
 26
0.0
 17
-101510.57916714774910361
 27
-19884.76400663307867944
 40
611146.64591559092514217
 41
1.94613583138173318
 42
50.0
 43
0.0
 44
0.0
 50
0.0
 51
0.0
 71
     0
 72
   100
 73
     1
 74
     1
 75
     0
 76
     0
 77
     0
 78
     0
281
     0
 65
     1
110
0.0
120
0.0
111
1.0
121
0.0
112
0.0
122
1.0
 79
     0
146
0.0
 70
     0
  0
ENDTAB
  0
TABLE
  2
DIMSTYLE
  5
76
100
AcDbSymbolTable
100
AcDbDimStyleTable
 70
     0
  0
ENDTAB
  0
TABLE
  2
LAYER
  5
77
100
AcDbSymbolTable
 70
     2
  0
LAYER
  5
78
100
AcDbSymbolTableRecord
100
AcDbLayerTableRecord
  2
0
 70
    64
 62
     1
  6
CONTINUOUS
390
f
  0
LAYER
  5
79
100
AcDbSymbolTableRecord
100
AcDbLayerTableRecord
  2
Mapa mundo
 70
    64
 62
     1
  6
CONTINUOUS
390
f
  0
ENDTAB
  0
TABLE
  2
STYLE
  5
7a
100
AcDbSymbolTable
 70
     1
  0
STYLE
  5
7b
100
AcDbSymbolTableRecord
100
AcDbTextStyleTableRecord
  2
STANDARD
 70
    64
 40
0.0
 41
1.0
 50
0.0
 71
     0
 42
5.0
  3
romans.shx
  4

  0
ENDTAB
  0
ENDSEC
  0
SECTION
  2
BLOCKS
  0
BLOCK
  5
7c
330
6d
100
AcDbEntity
  8
0
100
AcDbBlockBegin
  2
*Model_Space
 70
     0
 10
0.0
 20
0.0
  3
*Model_Space
  1

  0
ENDBLK
  5
7d
100
AcDbEntity
  8
0
100
AcDbBlockEnd
  0
BLOCK
  5
7e
330
6e
100
AcDbEntity
  8
0
100
AcDbBlockBegin
  2
*Paper_Space
 70
     0
 10
0.0
 20
0.0
  3
*Paper_Space
  1

  0
ENDBLK
  5
7f
100
AcDbEntity
  8
0
100
AcDbBlockEnd
  0
BLOCK
  5
80
330
6f
100
AcDbEntity
  8
0
100
AcDbBlockBegin
  2
*Paper_Space0
 70
     0
 10
0.0
 20
0.0
  3
*Paper_Space0
  1

  0
ENDBLK
  5
81
100
AcDbEntity
  8
0
100
AcDbBlockEnd
  0
ENDSEC
  0
SECTION
  2
ENTITIES
  0
LWPOLYLINE
  5
82
  8
Mapa mundo
100
AcDbEntity
100
AcDbPolyline
  6
CONTINUOUS
420
7828584
440
33554586
 90
     4
 70
   129
 43
260.0
 10
-745948.13769326044712216
 20
-1030295.93385515140835196
 10
-745645.26333365147002041
 20
-1032469.7710672146640718
 10
-747059.40976358484476805
 20
-1031854.3838880235562101
 10
-745948.13769326044712216
 20
-1030295.93385515140835196
  0
LWPOLYLINE
  5
83
  8
Mapa mundo
100
AcDbEntity
100
AcDbPolyline
  6
CONTINUOUS
420
7828584
440
33554586
 90
     4
 70
   129
 43
260.0
 10
-786331.16301106498576701
 20
-765391.43819995666854084
 10
-790765.12147385103162378
 20
-755082.81473580910824239
 10
-787720.08581209857948124
 20
-759397.9309592975769192
 10
-786331.16301106498576701
 20
-765391.43819995666854084
  0
LWPOLYLINE
  5
84
  8
Mapa mundo
100
AcDbEntity
100
AcDbPolyline
  6
CONTINUOUS
420
7828584
440
33554586
 90
    14
 70
   129
 43
260.0
 10
-813031.414721614215523
 20
-741375.99956743465736508
 10
-814973.38342039322014898
 20
-744566.7688794715795666
 10
-818995.85833609639666975
 20
-745668.33621832123026252
 10
-831128.19945015793200582
 20
-744301.34953048697207123
 10
-849597.22965713823214173
 20
-733887.08433032827451825
 10
-854788.72912781056948006
 20
-727469.90563260635826737
 10
-855472.56357823475264013
 20
-723434.15946265473030508
 10
-848570.2067307555116713
 20
-717333.03561380133032799
 10
-838144.77631262945942581
 20
-724967.20413220103364438
 10
-823941.49931804358493537
 20
-723130.43571691156830639
 10
-813052.63019288680516183
 20
-731514.41864306933712214
 10
-801450.16370466689113528
 20
-734253.53483123623300344
 10
-808984.18475032842252403
 20
-736778.63044706708751619
 10
-813031.414721614215523
 20
-741375.99956743465736508
  0
LWPOLYLINE
  5
85
  8
Mapa mundo
100
AcDbEntity
100
AcDbPolyline
  6
CONTINUOUS
420
7828584
440
33554586
 90
     7
 70
   129
 43
260.0
 10
-767527.56078060937579721
 20
-703494.54177638865076005
 10
-770013.92696148273535073
 20
-705856.67072780895978212
 10
-773157.34315008867997676
 20
-705001.74103866808582097
 10
-767226.02198956732172519
 20
-698055.83947399922180921
 10
-762312.69008669024333358
 20
-698131.70216991507913917
 10
-761445.24471556802745908
 20
-703629.21815978945232928
 10
-767527.56078060937579721
 20
-703494.54177638865076005
  0
LWPOLYLINE
  5
86
  8
Mapa mundo
100
AcDbEntity
100
AcDbPolyline
  6
CONTINUOUS
420
7828584
440
33554586
 90
     9
 70
   129
 43
260.0
 10
-1512760.72570561268366873
 20
-156910.697540151712019
 10
-1509317.18840887560509145
 20
-163460.03937837958801538
 10
-1510974.10250152088701725
 20
-167348.71740204354864545
 10
-1518880.35523957316763699
 20
-163776.54315489242435433
 10
-1523530.82090550055727363
 20
-163690.90635856962762773
 10
-1525542.95476525695994496
 20
-158161.16658971636206843
 10
-1524375.29019719059579074
 20
-157214.72327492572367191
 10
-1518742.52432179171591997
 20
-155632.0947546353272628
 10
-1512760.72570561268366873
 20
-156910.697540151712019
  0
LWPOLYLINE
  5
87
  8
Mapa mundo
100
AcDbEntity
100
AcDbPolyline
  6
CONTINUOUS
420
7828584
440
33554586
 90
     6
 70
   129
 43
260.0
 10
15793.79153873654468043
 20
-298329.63129630393814296
 10
20403.54426886118744733
 20
-298952.00115998869296163
 10
24301.09958143180119805
 20
-296101.32165134302340448
 10
24914.03579768216150114
 20
-297616.83547023450955749
 10
20413.18059825723685208
 20
-299945.42715035268338397
 10
15793.79153873654468043
 20
-298329.63129630393814296
  0
LWPOLYLINE
  5
88
  8
Mapa mundo
100
AcDbEntity
100
AcDbPolyline
  6
CONTINUOUS
420
7828584
440
33554586
 90
     9
 70
   129
 43
260.0
 10
-1791748.67385003785602748
 20
85738.31455317047948483
 10
-1791711.56971709011122584
 20
80434.97180968039901927
 10
-1796395.01202513976022601
 20
79466.41583162390452344
 10
-1794920.26164045510813594
 20
77584.26441577027435414
 10
-1804271.50404700706712902
 20
78879.571774700525566
 10
-1812222.00178328668698668
 20
90780.32020235650998075
 10
-1805318.55363620538264513
 20
90023.78887583149480633
 10
-1800180.40187774621881545
 20
93378.32175433155498467
 10
-1791748.67385003785602748
 20
85738.31455317047948483
  0
LWPOLYLINE
  5
89
  8
Mapa mundo
100
AcDbEntity
100
AcDbPolyline
  6
CONTINUOUS
420
7828584
440
33554586
 90
    14
 70
   129
 43
260.0
 10
-1751468.23300066450610757
 20
58649.2042134933944908
 10
-1747530.22346205241046846
 20
57308.23892635567608522
 10
-1746329.19954008492641151
 20
53059.1553147604863625
 10
-1747798.76527980458922684
 20
52140.73125840256398078
 10
-1759198.0118317308370024
 20
55596.62830874436622253
 10
-1764933.00420748814940453
 20
53546.55636228372895857
 10
-1768929.05534776602871716
 20
58445.68495435649674619
 10
-1783472.91306124394759536
 20
61110.00997503988037352
 10
-1789328.36990136397071183
 20
71791.80917609333118889
 10
-1788178.83614405663684011
 20
76750.60339347211993299
 10
-1781798.78428789577446878
 20
78738.09515750805439893
 10
-1772213.00414434308186173
 20
75660.76806077963556163
 10
-1759404.58814378757961094
 20
63314.49009943095006747
 10
-1751468.23300066450610757
 20
58649.2042134933944908
  0
LWPOLYLINE
  5
8a
  8
Mapa mundo
100
AcDbEntity
100
AcDbPolyline
  6
CONTINUOUS
420
7828584
440
33554586
 90
    19
 70
   129
 43
260.0
 10
-1506899.28925185720436275
 20
-60160.47741007908189204
 10
-1503723.62305904226377606
 20
-62194.37924540911626536
 10
-1502213.99780202121473849
 20
-65926.05214585206704214
 10
-1502720.11334540206007659
 20
-70025.43717999126238283
 10
-1505569.76200247020460665
 20
-73166.17129554010170978
 10
-1537664.43689714674837887
 20
-72641.30011935124639422
 10
-1546719.16937705385498703
 20
-66925.08113341602438595
 10
-1554555.60736293252557516
 20
-65045.10282758490939159
 10
-1563756.19304046197794378
 20
-54940.07899351621745154
 10
-1565973.74556981702335179
 20
-50020.06962251297954936
 10
-1563223.70624695811420679
 20
-44490.08874322004703572
 10
-1556264.46521926554851234
 20
-45203.10563380978419445
 10
-1551532.08514428604394197
 20
-49494.79677545079903211
 10
-1550965.96311853942461312
 20
-53887.74853997347963741
 10
-1539300.75479207141324878
 20
-58027.73804311917774612
 10
-1533962.02373964875005186
 20
-56597.35183742456138134
 10
-1530821.58518994110636413
 20
-59655.16391434057732113
 10
-1519573.1098157677333802
 20
-58064.02034508441283833
 10
-1506899.28925185720436275
 20
-60160.47741007908189204
  0
LWPOLYLINE
  5
8b
  8
Mapa mundo
100
AcDbEntity
100
AcDbPolyline
  6
CONTINUOUS
420
7828584
440
33554586
 90
    11
 70
   129
 43
260.0
 10
-1993718.07778413500636816
 20
245554.55573332135099918
 10
-1989712.22421471029520035
 20
243644.77416796493344009
 10
-1988653.23123083403334022
 20
241060.9748564182955306
 10
-1989667.86696516536176205
 20
234128.6291167137096636
 10
-1995696.58535486063919961
 20
227624.88241890526842326
 10
-2002390.13685228629037738
 20
229734.26233059744117782
 10
-2003787.01238719583489001
 20
234918.63482209763606079
 10
-2002079.41233486193232238
 20
239914.45026656196569093
 10
-1997920.73653588769957423
 20
246557.81322650297079235
 10
-1992658.84437159029766917
 20
246907.74268118827603757
 10
-1993718.07778413500636816
 20
245554.55573332135099918
  0
LWPOLYLINE
  5
8c
  8
Mapa mundo
100
AcDbEntity
100
AcDbPolyline
  6
CONTINUOUS
420
7828584
440
33554586
 90
     7
 70
   129
 43
260.0
 10
-1979143.55907190404832363
 20
268115.91155721043469384
 10
-1976310.10456430888734758
 20
266670.90652652509743348
 10
-1976992.78420191607438028
 20
263307.87208274030126631
 10
-1979597.18903058744035661
 20
260479.24378694262122735
 10
-1982500.69740257621742785
 20
260642.17073169921059161
 10
-1983046.99694312084466219
 20
265886.11428507301025093
 10
-1979143.55907190404832363
 20
268115.91155721043469384
  0
LWPOLYLINE
  5
8d
  8
Mapa mundo
100
AcDbEntity
100
AcDbPolyline
  6
CONTINUOUS
420
7828584
440
33554586
 90
    14
 70
   129
 43
260.0
 10
-1728195.199663968058303
 20
72018.15850127136218362
 10
-1719248.01135977427475154
 20
65638.27349805571429897
 10
-1718084.56468980549834669
 20
63249.79583853722579079
 10
-1724870.01248562475666404
 20
64027.3182229174854001
 10
-1736048.56932720821350813
 20
72467.06021710137429181
 10
-1741208.47089259792119265
 20
73275.31423027731943876
 10
-1744020.19009411428123713
 20
77164.39974804098892491
 10
-1752441.21640477399341762
 20
82322.79616971725772601
 10
-1754810.63654022780247033
 20
87240.28863489389186725
 10
-1757492.64962376398034394
 20
88339.78289789131667931
 10
-1761941.26401587179861963
 20
95159.42935561164631508
 10
-1761729.71871243906207383
 20
97454.79081359562405851
 10
-1739254.04755020537413657
 20
81837.25523070085910149
 10
-1728195.199663968058303
 20
72018.15850127136218362
  0
LWPOLYLINE
  5
8e
  8
Mapa mundo
100
AcDbEntity
100
AcDbPolyline
  6
CONTINUOUS
420
7828584
440
33554586
 90
    13
 70
   129
 43
260.0
 10
-1649327.51556679187342525
 20
65264.08198805018037092
 10
-1652680.29894246300682425
 20
64305.88991501319833333
 10
-1653501.92127128387801349
 20
60470.32017913147865329
 10
-1656902.0733367488719523
 20
59532.13141442715277663
 10
-1666536.47100366721861064
 20
64147.94641048375342507
 10
-1668919.14472111174836755
 20
63305.26334277926798677
 10
-1678803.80532593186944723
 20
70539.76023284166876692
 10
-1680409.80531799397431314
 20
79646.82779019704321399
 10
-1677809.17161482269875705
 20
81877.40441744975396432
 10
-1671101.25465858285315335
 20
82867.55894949520006776
 10
-1657766.35952572827227414
 20
79100.40222737322619651
 10
-1650077.86678070039488375
 20
71384.05838125490117818
 10
-1649327.51556679187342525
 20
65264.08198805018037092
  0
LWPOLYLINE
  5
8f
  8
Mapa mundo
100
AcDbEntity
100
AcDbPolyline
  6
CONTINUOUS
420
7828584
440
33554586
 90
     4
 70
   129
 43
260.0
 10
-78805.46688579554029275
 20
-88495.35681245899468195
 10
-78850.54235610362957232
 20
-90541.39997508155647665
 10
-82204.42115216286038049
 20
-93732.99465246741601732
 10
-78805.46688579554029275
 20
-88495.35681245899468195
  0
LWPOLYLINE
  5
90
  8
Mapa mundo
100
AcDbEntity
100
AcDbPolyline
  6
CONTINUOUS
420
7828584
440
33554586
 90
   292
 70
   129
 43
260.0
 10
54670.29161557997576892
 20
-237368.67989152230438776
 10
58755.26264985241868999
 20
-243197.44019915215903893
 10
63810.37795992627798114
 20
-274543.70138066593790427
 10
64437.45703857221087674
 20
-277641.54721600818447769
 10
61042.74372054875129834
 20
-276027.47479045094223693
 10
55180.26017871362273581
 20
-276939.53985690290573984
 10
27909.12357116473503993
 20
-296279.8705670447088778
 10
12629.13898974788389751
 20
-294609.48324875737307593
 10
13916.03612488879844022
 20
-297642.02028955245623365
 10
8704.67972760287011624
 20
-292017.88133433886105195
 10
-4093.67069350814108475
 20
-286406.20370714413002133
 10
-14235.72067788637650665
 20
-287548.82654005795484409
 10
-20648.69535899921902455
 20
-285283.31815151456976309
 10
-27183.69528459678258514
 20
-286958.87970779632451013
 10
-39727.24426784102979582
 20
-282332.84480591886676848
 10
-45191.16573537360090995
 20
-282996.28341148252366111
 10
-49184.3977018579680589
 20
-286835.12966193945612758
 10
-54643.97119651913817506
 20
-286801.58240887470310554
 10
-64592.79459117857186357
 20
-291410.1178842326044105
 10
-66345.31751997975516133
 20
-290684.99374456098303199
 10
-72353.10733529203571379
 20
-295000.8331908603431657
 10
-76953.35633238287118729
 20
-293451.86613874876638874
 10
-69315.33219005388673395
 20
-277042.81383278279099613
 10
-70100.96444127394352108
 20
-273734.92006396717624739
 10
-66400.75201419007498771
 20
-270121.34592459868872538
 10
-65095.88680615596967982
 20
-265220.7930806863005273
 10
-66457.11482818039075937
 20
-261524.42909202541341074
 10
-62504.89864472341287183
 20
-255962.28289687019423582
 10
-59684.27547700117429486
 20
-246093.36144541011890396
 10
-58544.70414551367866807
 20
-236562.16387354605831206
 10
-61233.94929117833817145
 20
-229304.74060339079005644
 10
-58753.57605657402018551
 20
-218555.39265565111418255
 10
-55072.07934946609020699
 20
-217564.51951857071253471
 10
-54573.62278779777989257
 20
-214898.56214083192753606
 10
-59562.28169337142026052
 20
-215740.29238852512207814
 10
-58833.13382308674772503
 20
-204215.62565521101350896
 10
-58580.04442378428211669
 20
-198519.37096842165919952
 10
-60450.09578521241201088
 20
-193047.37458525251713581
 10
-66948.88698142587963957
 20
-190191.26719184755347669
 10
-59901.9915867953459383
 20
-178082.63590874150395393
 10
-56182.82652559798589209
 20
-164251.82036246341885999
 10
-57857.3176018729354837
 20
-145115.6651493840618059
 10
-65049.92986596414993983
 20
-135076.64908498254953884
 10
-70634.32335731493367348
 20
-131451.89227656202274375
 10
-69287.44961170047463384
 20
-130085.82602076386683621
 10
-67306.39970958551566582
 20
-130924.84255358039808925
 10
-58238.03984584110003198
 20
-136244.59384062382741831
 10
-58109.92611425399081782
 20
-137690.97938789817271754
 10
-45750.45869281136401696
 20
-140006.62126112298574299
 10
-41368.03491270814993186
 20
-138616.52985800348687917
 10
-52640.6314157010638155
 20
-134869.34000230705714785
 10
-54041.52645111908350373
 20
-130848.87101221398916095
 10
-52678.06759222242544638
 20
-127040.97771406490937807
 10
-54763.30030975845875219
 20
-125283.38468914903933182
 10
-54432.07907976701972075
 20
-122485.0033657032327028
 10
-55799.43579499644692987
 20
-122249.72880054111010395
 10
-59273.13503463526285486
 20
-126308.35134584154002368
 10
-56449.10450702424714109
 20
-128894.43746286651003174
 10
-57177.96692709031776758
 20
-131558.93315654425532557
 10
-67395.77485635403718334
 20
-128037.53912889670755249
 10
-71681.76641421458043624
 20
-128805.6179445868183393
 10
-74954.2684307272429578
 20
-133845.43739273777464405
 10
-79926.68938956031342968
 20
-135885.51998791957157664
 10
-93212.83552146289730445
 20
-138872.29359221496270038
 10
-96135.55807131894107442
 20
-137534.48038131758221425
 10
-92234.0978718715487048
 20
-132216.50540582131361589
 10
-91589.93185390152211767
 20
-123452.29923126279027201
 10
-97440.40725927607854828
 20
-110731.85627152179949917
 10
-88053.32909889864095021
 20
-109110.70701422764977906
 10
-84833.35594514409604017
 20
-111608.93065171019406989
 10
-85347.35897710159770213
 20
-109326.54316998727153987
 10
-79977.77122081872948911
 20
-107796.53189857045072131
 10
-70346.25876151384727564
 20
-98793.63717544345126953
 10
-72052.73583922279067338
 20
-90443.45184413509559818
 10
-74067.42195446747064125
 20
-90560.44636495884333272
 10
-76189.15423396076948848
 20
-83438.54953701561316848
 10
-70163.10895240253012162
 20
-72191.1206369447754696
 10
-56878.44239067190937931
 20
-66145.25224908500968013
 10
-54674.26486638027563458
 20
-63152.17785441139130853
 10
-56990.11284843954490498
 20
-64835.41253419664280955
 10
-60876.59875329161877744
 20
-67660.34826537349727005
 10
-69500.24679792812094092
 20
-69364.37782333412906155
 10
-83980.69287824677303433
 20
-92594.00262858504720498
 10
-83915.03335754018917214
 20
-102850.18315398367121816
 10
-85182.65120717784157023
 20
-105465.32269225477648433
 10
-94573.96189910316024907
 20
-107611.82090189745940734
 10
-100225.6615011140529532
 20
-107002.92790677487209905
 10
-103447.89174172592174727
 20
-110118.79458896702271886
 10
-110619.24434513633605093
 20
-106273.61608466094185133
 10
-118174.23436635607504286
 20
-105776.60483795330219436
 10
-118507.71683567388390657
 20
-94426.1227867309062276
 10
-114796.57772812475741375
 20
-89960.26712114106339868
 10
-111824.6426090518507408
 20
-81015.59163220546906814
 10
-112874.97358109982451424
 20
-70109.19784573766810354
 10
-105197.43096002876700368
 20
-51579.95686024330643704
 10
-104773.36050068133044988
 20
-41017.65667211885011056
 10
-106281.32878560507379007
 20
-36163.66667721501289634
 10
-109966.7042684940242907
 20
-31761.09283821561621153
 10
-105120.15526377796777524
 20
-32633.77404282872157637
 10
-97111.39546564541524276
 20
-27129.15463673778504017
 10
-93407.20001713324745651
 20
-28534.53656275026514777
 10
-92389.1006486936530564
 20
-27516.50554282953089569
 10
-94418.99396396971133072
 20
-24686.17514448105794145
 10
-90304.44330376652942505
 20
-18978.38743505202728556
 10
-86216.68205263710115105
 20
-16404.73863599224569043
 10
-82250.00360717544390354
 20
-9441.77787748795526568
 10
-80522.35286406138038728
 20
1773.31671033472275667
 10
-65654.16970965453947429
 20
42381.55205900343571557
 10
-61371.79977297885488952
 20
52541.67222853743442101
 10
-58985.27466794459905941
 20
50394.52422165384632535
 10
-55569.76462389859807445
 20
50219.60451314142846968
 10
-58203.04105221427744254
 20
53329.97898725348932203
 10
-65030.1234572169923922
 20
55405.3183053357352037
 10
-66014.40116570549434982
 20
59403.73794074156467104
 10
-62280.34958985287812538
 20
67677.16708471935999114
 10
-55486.7345497038695612
 20
95108.89707965579873417
 10
-52210.82351369980460731
 20
108521.42297797613719013
 10
-51744.74199419136857614
 20
105752.68726396656711586
 10
-48813.65826241738250246
 20
109555.74828265035466757
 10
-47104.4663953436902375
 20
108817.21366288673016243
 10
-47605.15342559472628636
 20
111789.2136066559178289
 10
-44728.1315591145757935
 20
111351.10538759075279813
 10
-42978.50565082123648608
 20
114038.46140049162204377
 10
-44822.53007873073511291
 20
117370.65095438156276941
 10
-37118.26486237635981524
 20
120825.59414209845999721
 10
-42804.64734553854941623
 20
119134.60217189654940739
 10
-45212.33961909398931311
 20
119971.31277367928123567
 10
-46476.19843039291299647
 20
123937.61633738574164454
 10
-43231.5626473608717788
 20
128423.22763160007889383
 10
-44034.46458368484309176
 20
130786.80471550779475365
 10
-44723.75292829475074541
 20
127460.55181453247496393
 10
-45771.15351520801050356
 20
128524.3688860623515211
 10
-46976.60058018861309392
 20
126272.50166592950699851
 10
-49110.10038057732162997
 20
115730.35507192871591542
 10
-52241.51209428247966571
 20
109542.8868267813231796
 10
-43915.42508942160930019
 20
149858.59803878117236309
 10
-44755.6162277058174368
 20
162758.4141906873555854
 10
-43249.40280021115904674
 20
164972.74753852683352306
 10
-46386.99582792188448366
 20
165737.64094556734198704
 10
-50630.87625227204989642
 20
175780.37974748408305459
 10
-51180.0176836483515217
 20
184497.38585413721739314
 10
-54419.25995979837171035
 20
191824.23741907961084507
 10
-53630.51010633540863637
 20
200003.84482920070877299
 10
-57232.2900684013220598
 20
216718.83269778214162216
 10
-57778.93675654045364354
 20
223943.57972390207578428
 10
-50792.06521740507741924
 20
225463.52331923024030402
 10
-46851.54346189870557282
 20
228216.21689029765548185
 10
-58012.22812546270870371
 20
225260.67823657742701471
 10
-60594.26648886625480372
 20
226361.77269435272319242
 10
-62160.50833200247870991
 20
229984.47072384352213703
 10
-61589.89531165671360213
 20
242497.33227580614038743
 10
-52223.28109878949180711
 20
251575.12306847202125937
 10
-51201.44323377899127081
 20
255680.71509821282234043
 10
-44549.16606705646699993
 20
259060.91078376688528806
 10
-40877.10382117712288164
 20
264727.24395916162757203
 10
-17671.90252170559688238
 20
270259.37938370724441484
 10
-7376.88899791339645162
 20
276009.84190570825012401
 10
-5888.56863397374763736
 20
273250.35693254723446444
 10
-5868.39235721269596979
 20
266669.46748654113616794
 10
-372.72765343394542015
 20
267040.13558928907150403
 10
3148.44474151182157584
 20
263487.81960246729431674
 10
2077.61095071723912042
 20
260152.53842364568845369
 10
-4063.80563474522250544
 20
255102.32324366242391989
 10
-8057.4765271259493602
 20
248358.5828652594354935
 10
-7246.91308439978274691
 20
244305.43125992597197182
 10
-3648.43061637147820875
 20
242265.06953147653257474
 10
-3835.32215913913523764
 20
238129.22983665860374458
 10
6868.35707081882992497
 20
238506.24017463729251176
 10
11579.54659587697642564
 20
243808.92002702940953895
 10
15637.61638624002080178
 20
244181.1519001979904715
 10
17201.11303333661999204
 20
248762.24174091097665951
 10
18833.01256984424617258
 20
249397.74271111970301718
 10
19638.97452060336217983
 20
243189.4533590454084333
 10
34111.82223878460354172
 20
247833.05656011827522889
 10
39178.18140835077792872
 20
245155.61790474914596416
 10
43645.06644852639146848
 20
244989.29191699737566523
 10
42383.13144852589903167
 20
241488.90719628287479281
 10
43784.79345058652688749
 20
239697.90523699729237705
 10
48712.66288143964629853
 20
240453.07006133973482065
 10
51249.10223142697213916
 20
244130.13191138292313553
 10
55116.95511928685300518
 20
242775.61672928836196661
 10
57372.86787636143708369
 20
237618.69585456766071729
 10
61559.72815685931709595
 20
241663.06243255257140845
 10
73200.83112915800302289
 20
244178.26410517562180758
 10
76669.93214760700357147
 20
247043.1597858264867682
 10
77357.69616166666673962
 20
255332.98793416298576631
 10
80662.80598125525284559
 20
257815.28628416688297875
 10
89713.01010472109192051
 20
253067.13810200162697583
 10
95305.40933680080343038
 20
255470.86952808359637856
 10
98513.16866093067801557
 20
253332.93985849630553275
 10
105991.7618802760989638
 20
253394.59821335357264616
 10
107940.17408172352588736
 20
254646.82527625715010799
 10
108412.32234139100182801
 20
257966.76655852407566272
 10
110950.40727885191154201
 20
257555.28597549031837843
 10
114049.28156542965734843
 20
252922.21533468255074695
 10
116542.96344583069731016
 20
252216.25760394957615063
 10
125245.63800495455507189
 20
253486.75214019359555095
 10
126309.10559839120833203
 20
255879.84312689179205336
 10
128342.32864627445815131
 20
255063.60505036561517045
 10
129852.80241843653493561
 20
251915.75288166038808413
 10
129262.60775798569375183
 20
247107.64123337998171337
 10
133575.71346258188714273
 20
245467.51158773113274947
 10
129417.57006134980474599
 20
231202.78043038005125709
 10
132567.01845552967279218
 20
222280.25648488910519518
 10
135786.02583693957421929
 20
221694.47791428613709286
 10
139252.48724929854506627
 20
224367.73902489899774082
 10
147182.78922528121620417
 20
223087.63781113977893256
 10
155071.06152991516864859
 20
219322.97271712237852626
 10
160740.1601480059325695
 20
213007.10182661656290293
 10
154776.79768930535647087
 20
204733.68069472015486099
 10
151503.04196026211138815
 20
195109.20380741084227338
 10
146681.41796150029404089
 20
193488.28653371502878144
 10
146726.03913366119377315
 20
191284.27763579026213847
 10
145018.38967970188241452
 20
191249.91359002626268193
 10
138269.95420329956687056
 20
182842.39487419006763957
 10
131519.95220423172577284
 20
179130.79624082832015119
 10
124558.60043363031581976
 20
178663.84271196566987783
 10
115651.99371941764547955
 20
166432.57427922842907719
 10
114936.75669289848883636
 20
160870.08606858676648699
 10
111686.93519551283679903
 20
155882.9356712200678885
 10
101365.73598249480710365
 20
153919.89083552840747871
 10
100342.56885099154897034
 20
148939.74567016819491982
 10
111039.63908460673701484
 20
132814.09250917460303754
 10
109341.39072997072071303
 20
130946.14902815895038657
 10
109267.79059354307537433
 20
121755.10247839939256664
 10
111550.76076819164154585
 20
109534.00583299773279577
 10
108596.14463608049845789
 20
102275.19610777280468028
 10
111920.11816451522463467
 20
94816.4989326321228873
 10
108256.83387324864452239
 20
86709.62777732845279388
 10
108804.81534874856879469
 20
83095.79250073211733252
 10
113719.34738141762500163
 20
77268.14504659816157073
 10
107039.08367898990400136
 20
68594.19991157030744944
 10
105209.97701950889313594
 20
65934.9204707703756867
 10
101326.64952643640572205
 20
65826.32339362826314755
 10
95100.35619417839916423
 20
62471.93353417114121839
 10
92833.76890827479655854
 20
57542.51810195133293746
 10
95249.08062149424222298
 20
50651.17808721835899632
 10
100391.77815698906488251
 20
48926.92558744658890646
 10
107020.13712214236147702
 20
38606.47202434937207727
 10
103270.01305177090398502
 20
28419.36509782905704924
 10
103146.28861574923212174
 20
22196.58907120058938744
 10
97017.03828663892636541
 20
15522.4366839886733942
 10
97676.67949209797370713
 20
12385.97625058079029259
 10
95378.60463149055431131
 20
3450.59017897322974022
 10
81526.75249451493436936
 20
1191.11303322289677453
 10
76978.29232679803681094
 20
2412.45788619686481979
 10
67927.07619852227799129
 20
697.62470789948054062
 10
49523.93077230222115759
 20
1152.88291987659113147
 10
53022.02613943450705847
 20
-8089.3359600972116823
 10
57159.32987256047636038
 20
-12891.0669510727366287
 10
61526.32840871070948197
 20
-15749.43888700086972676
 10
64433.87975163041119231
 20
-20189.83246755770232994
 10
69892.34047994096181355
 20
-21984.41766314960113959
 10
69523.8096341815253254
 20
-35988.09202049321174854
 10
76135.93623836287588347
 20
-43775.69304386566363974
 10
75575.2357528544816887
 20
-50368.14494598747114651
 10
83398.39287497846817132
 20
-54804.4216652622926631
 10
84479.67951307924522553
 20
-56915.8563519827221171
 10
83515.02781613254046533
 20
-61149.20005855929048266
 10
87011.97887625829025637
 20
-62887.1265351227557403
 10
90108.89508552942425013
 20
-61191.08882583037484437
 10
94649.97385915277118329
 20
-61504.92737776411377126
 10
99304.3749766592081869
 20
-66152.73106940893922001
 10
100452.54930891511321533
 20
-72002.48209260233852547
 10
92560.58412440508254804
 20
-84240.38047250098315999
 10
93490.537779798018164
 20
-89720.52906823318335228
 10
85292.90141049477097113
 20
-93794.84381020956789143
 10
78848.84251596576359589
 20
-99762.65665885237103794
 10
73845.45078683992323931
 20
-105682.50794581735681277
 10
73181.15387368929805234
 20
-113141.24241351008822676
 10
75131.83118710806593299
 20
-116278.57936346688074991
 10
71074.2905214459169656
 20
-123137.02844673725485336
 10
68700.90968208285630681
 20
-130053.55325947598612402
 10
69635.35939520207466558
 20
-132787.77664749338873662
 10
67559.78314050064363983
 20
-135366.99398190816282295
 10
71253.40433691293583252
 20
-137753.25659845536574721
 10
84526.3430755059234798
 20
-154554.89062614145223051
 10
89019.43019264233589638
 20
-164326.33994290634291247
 10
91550.86505020008189604
 20
-165436.30335084325633943
 10
96941.02780077839270234
 20
-162459.26781909904093482
 10
103586.06663126060448121
 20
-162515.6502015158184804
 10
97388.64560750043892767
 20
-182112.07566538607352413
 10
88650.76363315671915188
 20
-180275.40246753109386191
 10
85498.12893019884359092
 20
-185104.96294532902538776
 10
75595.72792696660326328
 20
-187399.63304947680444457
 10
72718.70005034503992647
 20
-201439.77495652317884378
 10
70331.38520542622427456
 20
-205771.38092467040405609
 10
60746.57728871567087481
 20
-214925.09248391070286743
 10
58386.97510123562824447
 20
-225292.69110854156315327
 10
54640.81485539470304502
 20
-229258.78530855808639899
 10
53309.89667592046316713
 20
-233067.43085146427620202
 10
54670.29161557997576892
 20
-237368.67989152230438776
  0
LWPOLYLINE
  5
91
  8
Mapa mundo
100
AcDbEntity
100
AcDbPolyline
  6
CONTINUOUS
420
7828584
440
33554586
 90
     8
 70
   129
 43
260.0
 10
-1725904.91722158552147448
 20
119989.34111458444385789
 10
-1732207.5501763008069247
 20
123923.89363537423196249
 10
-1732269.15896292962133884
 20
127638.52262276483816095
 10
-1729020.69474836159497499
 20
131100.83710159515612759
 10
-1725684.33980616671033204
 20
130497.70425776281626895
 10
-1721326.13179741008207202
 20
123425.27849561766197439
 10
-1722494.53121804748661816
 20
120290.53606211685109884
 10
-1725904.91722158552147448
 20
119989.34111458444385789
  0
HATCH
  5
92
330
6d
100
AcDbEntity
  8
Mapa mundo
420
14736586
440
33554586
100
AcDbHatch
 10
0.0
 20
0.0
210
0.0
220
0.0
  2
SOLID
 70
     1
 71
     0
 91
     1
 92
     2
 72
     0
 73
     1
 93
     4
 10
-745948.13769326044712216
 20
-1030295.93385515140835196
 10
-745645.26333365147002041
 20
-1032469.7710672146640718
 10
-747059.40976358484476805
 20
-1031854.3838880235562101
 10
-745948.13769326044712216
 20
-1030295.93385515140835196
 97
     0
 75
     0
 76
     1
 98
     0
  0
HATCH
  5
93
330
6d
100
AcDbEntity
  8
Mapa mundo
420
14736586
440
33554586
100
AcDbHatch
 10
0.0
 20
0.0
210
0.0
220
0.0
  2
SOLID
 70
     1
 71
     0
 91
     1
 92
     2
 72
     0
 73
     1
 93
     4
 10
-786331.16301106498576701
 20
-765391.43819995666854084
 10
-790765.12147385103162378
 20
-755082.81473580910824239
 10
-787720.08581209857948124
 20
-759397.9309592975769192
 10
-786331.16301106498576701
 20
-765391.43819995666854084
 97
     0
 75
     0
 76
     1
 98
     0
  0
HATCH
  5
94
330
6d
100
AcDbEntity
  8
Mapa mundo
420
14736586
440
33554586
100
AcDbHatch
 10
0.0
 20
0.0
210
0.0
220
0.0
  2
SOLID
 70
     1
 71
     0
 91
     1
 92
     2
 72
     0
 73
     1
 93
    14
 10
-813031.414721614215523
 20
-741375.99956743465736508
 10
-814973.38342039322014898
 20
-744566.7688794715795666
 10
-818995.85833609639666975
 20
-745668.33621832123026252
 10
-831128.19945015793200582
 20
-744301.34953048697207123
 10
-849597.22965713823214173
 20
-733887.08433032827451825
 10
-854788.72912781056948006
 20
-727469.90563260635826737
 10
-855472.56357823475264013
 20
-723434.15946265473030508
 10
-848570.2067307555116713
 20
-717333.03561380133032799
 10
-838144.77631262945942581
 20
-724967.20413220103364438
 10
-823941.49931804358493537
 20
-723130.43571691156830639
 10
-813052.63019288680516183
 20
-731514.41864306933712214
 10
-801450.16370466689113528
 20
-734253.53483123623300344
 10
-808984.18475032842252403
 20
-736778.63044706708751619
 10
-813031.414721614215523
 20
-741375.99956743465736508
 97
     0
 75
     0
 76
     1
 98
     0
  0
HATCH
  5
95
330
6d
100
AcDbEntity
  8
Mapa mundo
420
14736586
440
33554586
100
AcDbHatch
 10
0.0
 20
0.0
210
0.0
220
0.0
  2
SOLID
 70
     1
 71
     0
 91
     1
 92
     2
 72
     0
 73
     1
 93
     7
 10
-767527.56078060937579721
 20
-703494.54177638865076005
 10
-770013.92696148273535073
 20
-705856.67072780895978212
 10
-773157.34315008867997676
 20
-705001.74103866808582097
 10
-767226.02198956732172519
 20
-698055.83947399922180921
 10
-762312.69008669024333358
 20
-698131.70216991507913917
 10
-761445.24471556802745908
 20
-703629.21815978945232928
 10
-767527.56078060937579721
 20
-703494.54177638865076005
 97
     0
 75
     0
 76
     1
 98
     0
  0
HATCH
  5
96
330
6d
100
AcDbEntity
  8
Mapa mundo
420
14736586
440
33554586
100
AcDbHatch
 10
0.0
 20
0.0
210
0.0
220
0.0
  2
SOLID
 70
     1
 71
     0
 91
     1
 92
     2
 72
     0
 73
     1
 93
     9
 10
-1512760.72570561268366873
 20
-156910.697540151712019
 10
-1509317.18840887560509145
 20
-163460.03937837958801538
 10
-1510974.10250152088701725
 20
-167348.71740204354864545
 10
-1518880.35523957316763699
 20
-163776.54315489242435433
 10
-1523530.82090550055727363
 20
-163690.90635856962762773
 10
-1525542.95476525695994496
 20
-158161.16658971636206843
 10
-1524375.29019719059579074
 20
-157214.72327492572367191
 10
-1518742.52432179171591997
 20
-155632.0947546353272628
 10
-1512760.72570561268366873
 20
-156910.697540151712019
 97
     0
 75
     0
 76
     1
 98
     0
  0
HATCH
  5
97
330
6d
100
AcDbEntity
  8
Mapa mundo
420
14736586
440
33554586
100
AcDbHatch
 10
0.0
 20
0.0
210
0.0
220
0.0
  2
SOLID
 70
     1
 71
     0
 91
     1
 92
     2
 72
     0
 73
     1
 93
     6
 10
15793.79153873654468043
 20
-298329.63129630393814296
 10
20403.54426886118744733
 20
-298952.00115998869296163
 10
24301.09958143180119805
 20
-296101.32165134302340448
 10
24914.03579768216150114
 20
-297616.83547023450955749
 10
20413.18059825723685208
 20
-299945.42715035268338397
 10
15793.79153873654468043
 20
-298329.63129630393814296
 97
     0
 75
     0
 76
     1
 98
     0
  0
HATCH
  5
98
330
6d
100
AcDbEntity
  8
Mapa mundo
420
14736586
440
33554586
100
AcDbHatch
 10
0.0
 20
0.0
210
0.0
220
0.0
  2
SOLID
 70
     1
 71
     0
 91
     1
 92
     2
 72
     0
 73
     1
 93
     9
 10
-1791748.67385003785602748
 20
85738.31455317047948483
 10
-1791711.56971709011122584
 20
80434.97180968039901927
 10
-1796395.01202513976022601
 20
79466.41583162390452344
 10
-1794920.26164045510813594
 20
77584.26441577027435414
 10
-1804271.50404700706712902
 20
78879.571774700525566
 10
-1812222.00178328668698668
 20
90780.32020235650998075
 10
-1805318.55363620538264513
 20
90023.78887583149480633
 10
-1800180.40187774621881545
 20
93378.32175433155498467
 10
-1791748.67385003785602748
 20
85738.31455317047948483
 97
     0
 75
     0
 76
     1
 98
     0
  0
HATCH
  5
99
330
6d
100
AcDbEntity
  8
Mapa mundo
420
14736586
440
33554586
100
AcDbHatch
 10
0.0
 20
0.0
210
0.0
220
0.0
  2
SOLID
 70
     1
 71
     0
 91
     1
 92
     2
 72
     0
 73
     1
 93
    14
 10
-1751468.23300066450610757
 20
58649.2042134933944908
 10
-1747530.22346205241046846
 20
57308.23892635567608522
 10
-1746329.19954008492641151
 20
53059.1553147604863625
 10
-1747798.76527980458922684
 20
52140.73125840256398078
 10
-1759198.0118317308370024
 20
55596.62830874436622253
 10
-1764933.00420748814940453
 20
53546.55636228372895857
 10
-1768929.05534776602871716
 20
58445.68495435649674619
 10
-1783472.91306124394759536
 20
61110.00997503988037352
 10
-1789328.36990136397071183
 20
71791.80917609333118889
 10
-1788178.83614405663684011
 20
76750.60339347211993299
 10
-1781798.78428789577446878
 20
78738.09515750805439893
 10
-1772213.00414434308186173
 20
75660.76806077963556163
 10
-1759404.58814378757961094
 20
63314.49009943095006747
 10
-1751468.23300066450610757
 20
58649.2042134933944908
 97
     0
 75
     0
 76
     1
 98
     0
  0
HATCH
  5
9a
330
6d
100
AcDbEntity
  8
Mapa mundo
420
14736586
440
33554586
100
AcDbHatch
 10
0.0
 20
0.0
210
0.0
220
0.0
  2
SOLID
 70
     1
 71
     0
 91
     1
 92
     2
 72
     0
 73
     1
 93
    19
 10
-1506899.28925185720436275
 20
-60160.47741007908189204
 10
-1503723.62305904226377606
 20
-62194.37924540911626536
 10
-1502213.99780202121473849
 20
-65926.05214585206704214
 10
-1502720.11334540206007659
 20
-70025.43717999126238283
 10
-1505569.76200247020460665
 20
-73166.17129554010170978
 10
-1537664.43689714674837887
 20
-72641.30011935124639422
 10
-1546719.16937705385498703
 20
-66925.08113341602438595
 10
-1554555.60736293252557516
 20
-65045.10282758490939159
 10
-1563756.19304046197794378
 20
-54940.07899351621745154
 10
-1565973.74556981702335179
 20
-50020.06962251297954936
 10
-1563223.70624695811420679
 20
-44490.08874322004703572
 10
-1556264.46521926554851234
 20
-45203.10563380978419445
 10
-1551532.08514428604394197
 20
-49494.79677545079903211
 10
-1550965.96311853942461312
 20
-53887.74853997347963741
 10
-1539300.75479207141324878
 20
-58027.73804311917774612
 10
-1533962.02373964875005186
 20
-56597.35183742456138134
 10
-1530821.58518994110636413
 20
-59655.16391434057732113
 10
-1519573.1098157677333802
 20
-58064.02034508441283833
 10
-1506899.28925185720436275
 20
-60160.47741007908189204
 97
     0
 75
     0
 76
     1
 98
     0
  0
HATCH
  5
9b
330
6d
100
AcDbEntity
  8
Mapa mundo
420
14736586
440
33554586
100
AcDbHatch
 10
0.0
 20
0.0
210
0.0
220
0.0
  2
SOLID
 70
     1
 71
     0
 91
     1
 92
     2
 72
     0
 73
     1
 93
    11
 10
-1993718.07778413500636816
 20
245554.55573332135099918
 10
-1989712.22421471029520035
 20
243644.77416796493344009
 10
-1988653.23123083403334022
 20
241060.9748564182955306
 10
-1989667.86696516536176205
 20
234128.6291167137096636
 10
-1995696.58535486063919961
 20
227624.88241890526842326
 10
-2002390.13685228629037738
 20
229734.26233059744117782
 10
-2003787.01238719583489001
 20
234918.63482209763606079
 10
-2002079.41233486193232238
 20
239914.45026656196569093
 10
-1997920.73653588769957423
 20
246557.81322650297079235
 10
-1992658.84437159029766917
 20
246907.74268118827603757
 10
-1993718.07778413500636816
 20
245554.55573332135099918
 97
     0
 75
     0
 76
     1
 98
     0
  0
HATCH
  5
9c
330
6d
100
AcDbEntity
  8
Mapa mundo
420
14736586
440
33554586
100
AcDbHatch
 10
0.0
 20
0.0
210
0.0
220
0.0
  2
SOLID
 70
     1
 71
     0
 91
     1
 92
     2
 72
     0
 73
     1
 93
     7
 10
-1979143.55907190404832363
 20
268115.91155721043469384
 10
-1976310.10456430888734758
 20
266670.90652652509743348
 10
-1976992.78420191607438028
 20
263307.87208274030126631
 10
-1979597.18903058744035661
 20
260479.24378694262122735
 10
-1982500.69740257621742785
 20
260642.17073169921059161
 10
-1983046.99694312084466219
 20
265886.11428507301025093
 10
-1979143.55907190404832363
 20
268115.91155721043469384
 97
     0
 75
     0
 76
     1
 98
     0
  0
HATCH
  5
9d
330
6d
100
AcDbEntity
  8
Mapa mundo
420
14736586
440
33554586
100
AcDbHatch
 10
0.0
 20
0.0
210
0.0
220
0.0
  2
SOLID
 70
     1
 71
     0
 91
     1
 92
     2
 72
     0
 73
     1
 93
    14
 10
-1728195.199663968058303
 20
72018.15850127136218362
 10
-1719248.01135977427475154
 20
65638.27349805571429897
 10
-1718084.56468980549834669
 20
63249.79583853722579079
 10
-1724870.01248562475666404
 20
64027.3182229174854001
 10
-1736048.56932720821350813
 20
72467.06021710137429181
 10
-1741208.47089259792119265
 20
73275.31423027731943876
 10
-1744020.19009411428123713
 20
77164.39974804098892491
 10
-1752441.21640477399341762
 20
82322.79616971725772601
 10
-1754810.63654022780247033
 20
87240.28863489389186725
 10
-1757492.64962376398034394
 20
88339.78289789131667931
 10
-1761941.26401587179861963
 20
95159.42935561164631508
 10
-1761729.71871243906207383
 20
97454.79081359562405851
 10
-1739254.04755020537413657
 20
81837.25523070085910149
 10
-1728195.199663968058303
 20
72018.15850127136218362
 97
     0
 75
     0
 76
     1
 98
     0
  0
HATCH
  5
9e
330
6d
100
AcDbEntity
  8
Mapa mundo
420
14736586
440
33554586
100
AcDbHatch
 10
0.0
 20
0.0
210
0.0
220
0.0
  2
SOLID
 70
     1
 71
     0
 91
     1
 92
     2
 72
     0
 73
     1
 93
    13
 10
-1649327.51556679187342525
 20
65264.08198805018037092
 10
-1652680.29894246300682425
 20
64305.88991501319833333
 10
-1653501.92127128387801349
 20
60470.32017913147865329
 10
-1656902.0733367488719523
 20
59532.13141442715277663
 10
-1666536.47100366721861064
 20
64147.94641048375342507
 10
-1668919.14472111174836755
 20
63305.26334277926798677
 10
-1678803.80532593186944723
 20
70539.76023284166876692
 10
-1680409.80531799397431314
 20
79646.82779019704321399
 10
-1677809.17161482269875705
 20
81877.40441744975396432
 10
-1671101.25465858285315335
 20
82867.55894949520006776
 10
-1657766.35952572827227414
 20
79100.40222737322619651
 10
-1650077.86678070039488375
 20
71384.05838125490117818
 10
-1649327.51556679187342525
 20
65264.08198805018037092
 97
     0
 75
     0
 76
     1
 98
     0
  0
HATCH
  5
9f
330
6d
100
AcDbEntity
  8
Mapa mundo
420
14736586
440
33554586
100
AcDbHatch
 10
0.0
 20
0.0
210
0.0
220
0.0
  2
SOLID
 70
     1
 71
     0
 91
     1
 92
     2
 72
     0
 73
     1
 93
     4
 10
-78805.46688579554029275
 20
-88495.35681245899468195
 10
-78850.54235610362957232
 20
-90541.39997508155647665
 10
-82204.42115216286038049
 20
-93732.99465246741601732
 10
-78805.46688579554029275
 20
-88495.35681245899468195
 97
     0
 75
     0
 76
     1
 98
     0
  0
HATCH
  5
a0
330
6d
100
AcDbEntity
  8
Mapa mundo
420
14736586
440
33554586
100
AcDbHatch
 10
0.0
 20
0.0
210
0.0
220
0.0
  2
SOLID
 70
     1
 71
     0
 91
     1
 92
     2
 72
     0
 73
     1
 93
   292
 10
54670.29161557997576892
 20
-237368.67989152230438776
 10
58755.26264985241868999
 20
-243197.44019915215903893
 10
63810.37795992627798114
 20
-274543.70138066593790427
 10
64437.45703857221087674
 20
-277641.54721600818447769
 10
61042.74372054875129834
 20
-276027.47479045094223693
 10
55180.26017871362273581
 20
-276939.53985690290573984
 10
27909.12357116473503993
 20
-296279.8705670447088778
 10
12629.13898974788389751
 20
-294609.48324875737307593
 10
13916.03612488879844022
 20
-297642.02028955245623365
 10
8704.67972760287011624
 20
-292017.88133433886105195
 10
-4093.67069350814108475
 20
-286406.20370714413002133
 10
-14235.72067788637650665
 20
-287548.82654005795484409
 10
-20648.69535899921902455
 20
-285283.31815151456976309
 10
-27183.69528459678258514
 20
-286958.87970779632451013
 10
-39727.24426784102979582
 20
-282332.84480591886676848
 10
-45191.16573537360090995
 20
-282996.28341148252366111
 10
-49184.3977018579680589
 20
-286835.12966193945612758
 10
-54643.97119651913817506
 20
-286801.58240887470310554
 10
-64592.79459117857186357
 20
-291410.1178842326044105
 10
-66345.31751997975516133
 20
-290684.99374456098303199
 10
-72353.10733529203571379
 20
-295000.8331908603431657
 10
-76953.35633238287118729
 20
-293451.86613874876638874
 10
-69315.33219005388673395
 20
-277042.81383278279099613
 10
-70100.96444127394352108
 20
-273734.92006396717624739
 10
-66400.75201419007498771
 20
-270121.34592459868872538
 10
-65095.88680615596967982
 20
-265220.7930806863005273
 10
-66457.11482818039075937
 20
-261524.42909202541341074
 10
-62504.89864472341287183
 20
-255962.28289687019423582
 10
-59684.27547700117429486
 20
-246093.36144541011890396
 10
-58544.70414551367866807
 20
-236562.16387354605831206
 10
-61233.94929117833817145
 20
-229304.74060339079005644
 10
-58753.57605657402018551
 20
-218555.39265565111418255
 10
-55072.07934946609020699
 20
-217564.51951857071253471
 10
-54573.62278779777989257
 20
-214898.56214083192753606
 10
-59562.28169337142026052
 20
-215740.29238852512207814
 10
-58833.13382308674772503
 20
-204215.62565521101350896
 10
-58580.04442378428211669
 20
-198519.37096842165919952
 10
-60450.09578521241201088
 20
-193047.37458525251713581
 10
-66948.88698142587963957
 20
-190191.26719184755347669
 10
-59901.9915867953459383
 20
-178082.63590874150395393
 10
-56182.82652559798589209
 20
-164251.82036246341885999
 10
-57857.3176018729354837
 20
-145115.6651493840618059
 10
-65049.92986596414993983
 20
-135076.64908498254953884
 10
-70634.32335731493367348
 20
-131451.89227656202274375
 10
-69287.44961170047463384
 20
-130085.82602076386683621
 10
-67306.39970958551566582
 20
-130924.84255358039808925
 10
-58238.03984584110003198
 20
-136244.59384062382741831
 10
-58109.92611425399081782
 20
-137690.97938789817271754
 10
-45750.45869281136401696
 20
-140006.62126112298574299
 10
-41368.03491270814993186
 20
-138616.52985800348687917
 10
-52640.6314157010638155
 20
-134869.34000230705714785
 10
-54041.52645111908350373
 20
-130848.87101221398916095
 10
-52678.06759222242544638
 20
-127040.97771406490937807
 10
-54763.30030975845875219
 20
-125283.38468914903933182
 10
-54432.07907976701972075
 20
-122485.0033657032327028
 10
-55799.43579499644692987
 20
-122249.72880054111010395
 10
-59273.13503463526285486
 20
-126308.35134584154002368
 10
-56449.10450702424714109
 20
-128894.43746286651003174
 10
-57177.96692709031776758
 20
-131558.93315654425532557
 10
-67395.77485635403718334
 20
-128037.53912889670755249
 10
-71681.76641421458043624
 20
-128805.6179445868183393
 10
-74954.2684307272429578
 20
-133845.43739273777464405
 10
-79926.68938956031342968
 20
-135885.51998791957157664
 10
-93212.83552146289730445
 20
-138872.29359221496270038
 10
-96135.55807131894107442
 20
-137534.48038131758221425
 10
-92234.0978718715487048
 20
-132216.50540582131361589
 10
-91589.93185390152211767
 20
-123452.29923126279027201
 10
-97440.40725927607854828
 20
-110731.85627152179949917
 10
-88053.32909889864095021
 20
-109110.70701422764977906
 10
-84833.35594514409604017
 20
-111608.93065171019406989
 10
-85347.35897710159770213
 20
-109326.54316998727153987
 10
-79977.77122081872948911
 20
-107796.53189857045072131
 10
-70346.25876151384727564
 20
-98793.63717544345126953
 10
-72052.73583922279067338
 20
-90443.45184413509559818
 10
-74067.42195446747064125
 20
-90560.44636495884333272
 10
-76189.15423396076948848
 20
-83438.54953701561316848
 10
-70163.10895240253012162
 20
-72191.1206369447754696
 10
-56878.44239067190937931
 20
-66145.25224908500968013
 10
-54674.26486638027563458
 20
-63152.17785441139130853
 10
-56990.11284843954490498
 20
-64835.41253419664280955
 10
-60876.59875329161877744
 20
-67660.34826537349727005
 10
-69500.24679792812094092
 20
-69364.37782333412906155
 10
-83980.69287824677303433
 20
-92594.00262858504720498
 10
-83915.03335754018917214
 20
-102850.18315398367121816
 10
-85182.65120717784157023
 20
-105465.32269225477648433
 10
-94573.96189910316024907
 20
-107611.82090189745940734
 10
-100225.6615011140529532
 20
-107002.92790677487209905
 10
-103447.89174172592174727
 20
-110118.79458896702271886
 10
-110619.24434513633605093
 20
-106273.61608466094185133
 10
-118174.23436635607504286
 20
-105776.60483795330219436
 10
-118507.71683567388390657
 20
-94426.1227867309062276
 10
-114796.57772812475741375
 20
-89960.26712114106339868
 10
-111824.6426090518507408
 20
-81015.59163220546906814
 10
-112874.97358109982451424
 20
-70109.19784573766810354
 10
-105197.43096002876700368
 20
-51579.95686024330643704
 10
-104773.36050068133044988
 20
-41017.65667211885011056
 10
-106281.32878560507379007
 20
-36163.66667721501289634
 10
-109966.7042684940242907
 20
-31761.09283821561621153
 10
-105120.15526377796777524
 20
-32633.77404282872157637
 10
-97111.39546564541524276
 20
-27129.15463673778504017
 10
-93407.20001713324745651
 20
-28534.53656275026514777
 10
-92389.1006486936530564
 20
-27516.50554282953089569
 10
-94418.99396396971133072
 20
-24686.17514448105794145
 10
-90304.44330376652942505
 20
-18978.38743505202728556
 10
-86216.68205263710115105
 20
-16404.73863599224569043
 10
-82250.00360717544390354
 20
-9441.77787748795526568
 10
-80522.35286406138038728
 20
1773.31671033472275667
 10
-65654.16970965453947429
 20
42381.55205900343571557
 10
-61371.79977297885488952
 20
52541.67222853743442101
 10
-58985.27466794459905941
 20
50394.52422165384632535
 10
-55569.76462389859807445
 20
50219.60451314142846968
 10
-58203.04105221427744254
 20
53329.97898725348932203
 10
-65030.1234572169923922
 20
55405.3183053357352037
 10
-66014.40116570549434982
 20
59403.73794074156467104
 10
-62280.34958985287812538
 20
67677.16708471935999114
 10
-55486.7345497038695612
 20
95108.89707965579873417
 10
-52210.82351369980460731
 20
108521.42297797613719013
 10
-51744.74199419136857614
 20
105752.68726396656711586
 10
-48813.65826241738250246
 20
109555.74828265035466757
 10
-47104.4663953436902375
 20
108817.21366288673016243
 10
-47605.15342559472628636
 20
111789.2136066559178289
 10
-44728.1315591145757935
 20
111351.10538759075279813
 10
-42978.50565082123648608
 20
114038.46140049162204377
 10
-44822.53007873073511291
 20
117370.65095438156276941
 10
-37118.26486237635981524
 20
120825.59414209845999721
 10
-42804.64734553854941623
 20
119134.60217189654940739
 10
-45212.33961909398931311
 20
119971.31277367928123567
 10
-46476.19843039291299647
 20
123937.61633738574164454
 10
-43231.5626473608717788
 20
128423.22763160007889383
 10
-44034.46458368484309176
 20
130786.80471550779475365
 10
-44723.75292829475074541
 20
127460.55181453247496393
 10
-45771.15351520801050356
 20
128524.3688860623515211
 10
-46976.60058018861309392
 20
126272.50166592950699851
 10
-49110.10038057732162997
 20
115730.35507192871591542
 10
-52241.51209428247966571
 20
109542.8868267813231796
 10
-43915.42508942160930019
 20
149858.59803878117236309
 10
-44755.6162277058174368
 20
162758.4141906873555854
 10
-43249.40280021115904674
 20
164972.74753852683352306
 10
-46386.99582792188448366
 20
165737.64094556734198704
 10
-50630.87625227204989642
 20
175780.37974748408305459
 10
-51180.0176836483515217
 20
184497.38585413721739314
 10
-54419.25995979837171035
 20
191824.23741907961084507
 10
-53630.51010633540863637
 20
200003.84482920070877299
 10
-57232.2900684013220598
 20
216718.83269778214162216
 10
-57778.93675654045364354
 20
223943.57972390207578428
 10
-50792.06521740507741924
 20
225463.52331923024030402
 10
-46851.54346189870557282
 20
228216.21689029765548185
 10
-58012.22812546270870371
 20
225260.67823657742701471
 10
-60594.26648886625480372
 20
226361.77269435272319242
 10
-62160.50833200247870991
 20
229984.47072384352213703
 10
-61589.89531165671360213
 20
242497.33227580614038743
 10
-52223.28109878949180711
 20
251575.12306847202125937
 10
-51201.44323377899127081
 20
255680.71509821282234043
 10
-44549.16606705646699993
 20
259060.91078376688528806
 10
-40877.10382117712288164
 20
264727.24395916162757203
 10
-17671.90252170559688238
 20
270259.37938370724441484
 10
-7376.88899791339645162
 20
276009.84190570825012401
 10
-5888.56863397374763736
 20
273250.35693254723446444
 10
-5868.39235721269596979
 20
266669.46748654113616794
 10
-372.72765343394542015
 20
267040.13558928907150403
 10
3148.44474151182157584
 20
263487.81960246729431674
 10
2077.61095071723912042
 20
260152.53842364568845369
 10
-4063.80563474522250544
 20
255102.32324366242391989
 10
-8057.4765271259493602
 20
248358.5828652594354935
 10
-7246.91308439978274691
 20
244305.43125992597197182
 10
-3648.43061637147820875
 20
242265.06953147653257474
 10
-3835.32215913913523764
 20
238129.22983665860374458
 10
6868.35707081882992497
 20
238506.24017463729251176
 10
11579.54659587697642564
 20
243808.92002702940953895
 10
15637.61638624002080178
 20
244181.1519001979904715
 10
17201.11303333661999204
 20
248762.24174091097665951
 10
18833.01256984424617258
 20
249397.74271111970301718
 10
19638.97452060336217983
 20
243189.4533590454084333
 10
34111.82223878460354172
 20
247833.05656011827522889
 10
39178.18140835077792872
 20
245155.61790474914596416
 10
43645.06644852639146848
 20
244989.29191699737566523
 10
42383.13144852589903167
 20
241488.90719628287479281
 10
43784.79345058652688749
 20
239697.90523699729237705
 10
48712.66288143964629853
 20
240453.07006133973482065
 10
51249.10223142697213916
 20
244130.13191138292313553
 10
55116.95511928685300518
 20
242775.61672928836196661
 10
57372.86787636143708369
 20
237618.69585456766071729
 10
61559.72815685931709595
 20
241663.06243255257140845
 10
73200.83112915800302289
 20
244178.26410517562180758
 10
76669.93214760700357147
 20
247043.1597858264867682
 10
77357.69616166666673962
 20
255332.98793416298576631
 10
80662.80598125525284559
 20
257815.28628416688297875
 10
89713.01010472109192051
 20
253067.13810200162697583
 10
95305.40933680080343038
 20
255470.86952808359637856
 10
98513.16866093067801557
 20
253332.93985849630553275
 10
105991.7618802760989638
 20
253394.59821335357264616
 10
107940.17408172352588736
 20
254646.82527625715010799
 10
108412.32234139100182801
 20
257966.76655852407566272
 10
110950.40727885191154201
 20
257555.28597549031837843
 10
114049.28156542965734843
 20
252922.21533468255074695
 10
116542.96344583069731016
 20
252216.25760394957615063
 10
125245.63800495455507189
 20
253486.75214019359555095
 10
126309.10559839120833203
 20
255879.84312689179205336
 10
128342.32864627445815131
 20
255063.60505036561517045
 10
129852.80241843653493561
 20
251915.75288166038808413
 10
129262.60775798569375183
 20
247107.64123337998171337
 10
133575.71346258188714273
 20
245467.51158773113274947
 10
129417.57006134980474599
 20
231202.78043038005125709
 10
132567.01845552967279218
 20
222280.25648488910519518
 10
135786.02583693957421929
 20
221694.47791428613709286
 10
139252.48724929854506627
 20
224367.73902489899774082
 10
147182.78922528121620417
 20
223087.63781113977893256
 10
155071.06152991516864859
 20
219322.97271712237852626
 10
160740.1601480059325695
 20
213007.10182661656290293
 10
154776.79768930535647087
 20
204733.68069472015486099
 10
151503.04196026211138815
 20
195109.20380741084227338
 10
146681.41796150029404089
 20
193488.28653371502878144
 10
146726.03913366119377315
 20
191284.27763579026213847
 10
145018.38967970188241452
 20
191249.91359002626268193
 10
138269.95420329956687056
 20
182842.39487419006763957
 10
131519.95220423172577284
 20
179130.79624082832015119
 10
124558.60043363031581976
 20
178663.84271196566987783
 10
115651.99371941764547955
 20
166432.57427922842907719
 10
114936.75669289848883636
 20
160870.08606858676648699
 10
111686.93519551283679903
 20
155882.9356712200678885
 10
101365.73598249480710365
 20
153919.89083552840747871
 10
100342.56885099154897034
 20
148939.74567016819491982
 10
111039.63908460673701484
 20
132814.09250917460303754
 10
109341.39072997072071303
 20
130946.14902815895038657
 10
109267.79059354307537433
 20
121755.10247839939256664
 10
111550.76076819164154585
 20
109534.00583299773279577
 10
108596.14463608049845789
 20
102275.19610777280468028
 10
111920.11816451522463467
 20
94816.4989326321228873
 10
108256.83387324864452239
 20
86709.62777732845279388
 10
108804.81534874856879469
 20
83095.79250073211733252
 10
113719.34738141762500163
 20
77268.14504659816157073
 10
107039.08367898990400136
 20
68594.19991157030744944
 10
105209.97701950889313594
 20
65934.9204707703756867
 10
101326.64952643640572205
 20
65826.32339362826314755
 10
95100.35619417839916423
 20
62471.93353417114121839
 10
92833.76890827479655854
 20
57542.51810195133293746
 10
95249.08062149424222298
 20
50651.17808721835899632
 10
100391.77815698906488251
 20
48926.92558744658890646
 10
107020.13712214236147702
 20
38606.47202434937207727
 10
103270.01305177090398502
 20
28419.36509782905704924
 10
103146.28861574923212174
 20
22196.58907120058938744
 10
97017.03828663892636541
 20
15522.4366839886733942
 10
97676.67949209797370713
 20
12385.97625058079029259
 10
95378.60463149055431131
 20
3450.59017897322974022
 10
81526.75249451493436936
 20
1191.11303322289677453
 10
76978.29232679803681094
 20
2412.45788619686481979
 10
67927.07619852227799129
 20
697.62470789948054062
 10
49523.93077230222115759
 20
1152.88291987659113147
 10
53022.02613943450705847
 20
-8089.3359600972116823
 10
57159.32987256047636038
 20
-12891.0669510727366287
 10
61526.32840871070948197
 20
-15749.43888700086972676
 10
64433.87975163041119231
 20
-20189.83246755770232994
 10
69892.34047994096181355
 20
-21984.41766314960113959
 10
69523.8096341815253254
 20
-35988.09202049321174854
 10
76135.93623836287588347
 20
-43775.69304386566363974
 10
75575.2357528544816887
 20
-50368.14494598747114651
 10
83398.39287497846817132
 20
-54804.4216652622926631
 10
84479.67951307924522553
 20
-56915.8563519827221171
 10
83515.02781613254046533
 20
-61149.20005855929048266
 10
87011.97887625829025637
 20
-62887.1265351227557403
 10
90108.89508552942425013
 20
-61191.08882583037484437
 10
94649.97385915277118329
 20
-61504.92737776411377126
 10
99304.3749766592081869
 20
-66152.73106940893922001
 10
100452.54930891511321533
 20
-72002.48209260233852547
 10
92560.58412440508254804
 20
-84240.38047250098315999
 10
93490.537779798018164
 20
-89720.52906823318335228
 10
85292.90141049477097113
 20
-93794.84381020956789143
 10
78848.84251596576359589
 20
-99762.65665885237103794
 10
73845.45078683992323931
 20
-105682.50794581735681277
 10
73181.15387368929805234
 20
-113141.24241351008822676
 10
75131.83118710806593299
 20
-116278.57936346688074991
 10
71074.2905214459169656
 20
-123137.02844673725485336
 10
68700.90968208285630681
 20
-130053.55325947598612402
 10
69635.35939520207466558
 20
-132787.77664749338873662
 10
67559.78314050064363983
 20
-135366.99398190816282295
 10
71253.40433691293583252
 20
-137753.25659845536574721
 10
84526.3430755059234798
 20
-154554.89062614145223051
 10
89019.43019264233589638
 20
-164326.33994290634291247
 10
91550.86505020008189604
 20
-165436.30335084325633943
 10
96941.02780077839270234
 20
-162459.26781909904093482
 10
103586.06663126060448121
 20
-162515.6502015158184804
 10
97388.64560750043892767
 20
-182112.07566538607352413
 10
88650.76363315671915188
 20
-180275.40246753109386191
 10
85498.12893019884359092
 20
-185104.96294532902538776
 10
75595.72792696660326328
 20
-187399.63304947680444457
 10
72718.70005034503992647
 20
-201439.77495652317884378
 10
70331.38520542622427456
 20
-205771.38092467040405609
 10
60746.57728871567087481
 20
-214925.09248391070286743
 10
58386.97510123562824447
 20
-225292.69110854156315327
 10
54640.81485539470304502
 20
-229258.78530855808639899
 10
53309.89667592046316713
 20
-233067.43085146427620202
 10
54670.29161557997576892
 20
-237368.67989152230438776
 97
     0
 75
     0
 76
     1
 98
     0
  0
HATCH
  5
a1
330
6d
100
AcDbEntity
  8
Mapa mundo
420
14736586
440
33554586
100
AcDbHatch
 10
0.0
 20
0.0
210
0.0
220
0.0
  2
SOLID
 70
     1
 71
     0
 91
     1
 92
     2
 72
     0
 73
     1
 93
     8
 10
-1725904.91722158552147448
 20
119989.34111458444385789
 10
-1732207.5501763008069247
 20
123923.89363537423196249
 10
-1732269.15896292962133884
 20
127638.52262276483816095
 10
-1729020.69474836159497499
 20
131100.83710159515612759
 10
-1725684.33980616671033204
 20
130497.70425776281626895
 10
-1721326.13179741008207202
 20
123425.27849561766197439
 10
-1722494.53121804748661816
 20
120290.53606211685109884
 10
-1725904.91722158552147448
 20
119989.34111458444385789
 97
     0
 75
     0
 76
     1
 98
     0
  0
LWPOLYLINE
  5
a2
  8
Mapa mundo
100
AcDbEntity
100
AcDbPolyline
  6
CONTINUOUS
420
7828584
440
33554586
 90
    13
 70
   129
 43
260.0
 10
-968014.68527135532349348
 20
-1271724.15969143295660615
 10
-964398.2103947140276432
 20
-1273333.30733191920444369
 10
-962919.90229906875174493
 20
-1276352.88351015723310411
 10
-974428.98794694477692246
 20
-1294771.25251335790380836
 10
-977942.35400913830380887
 20
-1293256.52350876783020794
 10
-981316.94232308701612055
 20
-1288735.005393992876634
 10
-988578.01778440689668059
 20
-1287126.09625786822289228
 10
-991702.71058414096478373
 20
-1284383.14966877712868154
 10
-992058.64148885221220553
 20
-1280392.6861989835742861
 10
-989297.04324688296765089
 20
-1279356.14045619126409292
 10
-981087.49466091755311936
 20
-1281410.8393874280154705
 10
-973824.20963876007590443
 20
-1274439.42141146026551723
 10
-968014.68527135532349348
 20
-1271724.15969143295660615
  0
LWPOLYLINE
  5
a3
  8
Mapa mundo
100
AcDbEntity
100
AcDbPolyline
  6
CONTINUOUS
420
7828584
440
33554586
 90
    23
 70
   129
 43
260.0
 10
-597402.86153994547203183
 20
-1253185.24464349844492972
 10
-595871.00989415787626058
 20
-1245575.61150202061980963
 10
-589137.85301849746610969
 20
-1231316.65371191175654531
 10
-578010.32027568074408919
 20
-1214876.74123385082930326
 10
-573749.13708148628938943
 20
-1200674.77474480774253607
 10
-567252.32012922468129545
 20
-1197344.6266365428455174
 10
-560342.43942439078819007
 20
-1198269.51139290351420641
 10
-557650.22313559334725142
 20
-1201598.92864172672852874
 10
-556661.71273781580384821
 20
-1210425.03896181262098253
 10
-557851.07145627064164728
 20
-1219844.90118318772874773
 10
-560972.01199354405980557
 20
-1227781.3098686879966408
 10
-560014.93212868296541274
 20
-1235853.43565782788209617
 10
-569806.88666576787363738
 20
-1253510.25317051447927952
 10
-595604.95223158225417137
 20
-1260418.08399522444233298
 10
-606995.72450067207682878
 20
-1271321.72353489883244038
 10
-611218.75423718593083322
 20
-1273020.42791392258368433
 10
-619529.51717086031567305
 20
-1270305.71254472178407013
 10
-627267.42911041341722012
 20
-1269901.46350144548341632
 10
-626081.07350594154559076
 20
-1266469.96390838385559618
 10
-620090.28853540599811822
 20
-1267005.51272758957929909
 10
-610544.67532848508562893
 20
-1263710.72451479593291879
 10
-603308.71561580244451761
 20
-1259458.05773208593018353
 10
-597402.86153994547203183
 20
-1253185.24464349844492972
  0
LWPOLYLINE
  5
a4
  8
Mapa mundo
100
AcDbEntity
100
AcDbPolyline
  6
CONTINUOUS
420
7828584
440
33554586
 90
     6
 70
   129
 43
260.0
 10
-520608.69531169906258583
 20
-1139960.67334358603693545
 10
-519845.97366213623899966
 20
-1142038.57294822530820966
 10
-521341.55911631922936067
 20
-1144597.47840279177762568
 10
-526206.98475102160591632
 20
-1145850.35826908121816814
 10
-522676.39279060158878565
 20
-1139326.60123911942355335
 10
-520608.69531169906258583
 20
-1139960.67334358603693545
  0
LWPOLYLINE
  5
a5
  8
Mapa mundo
100
AcDbEntity
100
AcDbPolyline
  6
CONTINUOUS
420
7828584
440
33554586
 90
    17
 70
   129
 43
260.0
 10
-520475.27385730034438893
 20
-1144940.62542416853830218
 10
-518745.43517218925990164
 20
-1144643.65130964503623545
 10
-514279.57673205941682681
 20
-1148673.75271597411483526
 10
-518579.74191933608381078
 20
-1155327.72430529608391225
 10
-518222.09534886141773313
 20
-1162179.08986414363607764
 10
-521601.37507520319195464
 20
-1171660.4613544789608568
 10
-534206.73264367470983416
 20
-1178525.21107932482846081
 10
-544243.79836469574365765
 20
-1180049.2209416120313108
 10
-551031.06555381242651492
 20
-1188092.68551640096120536
 10
-559960.51038770738523453
 20
-1184844.47033997951075435
 10
-560715.06324673665221781
 20
-1182142.66231295675970614
 10
-557272.03312402172014117
 20
-1178665.34384312503971159
 10
-555790.31793718971312046
 20
-1169953.19711595750413835
 10
-552251.73419356299564242
 20
-1164812.16119465534575284
 10
-536056.64069865026976913
 20
-1156799.85300299106165767
 10
-526281.54310624056961387
 20
-1155994.70840783859603107
 10
-520475.27385730034438893
 20
-1144940.62542416853830218
  0
LWPOLYLINE
  5
a6
  8
Mapa mundo
100
AcDbEntity
100
AcDbPolyline
  6
CONTINUOUS
420
7828584
440
33554586
 90
    22
 70
   129
 43
260.0
 10
-714832.32944268139544874
 20
-1269552.44019771437160671
 10
-712207.1923987113405019
 20
-1272000.26381597272120416
 10
-713844.21113112720195204
 20
-1277734.70130104920826852
 10
-712704.52604884479660541
 20
-1280357.15460646967403591
 10
-715699.19458602403756231
 20
-1284065.42642177105881274
 10
-714653.75925393495708704
 20
-1289441.55049677984789014
 10
-722501.54457040934357792
 20
-1295792.37523224717006087
 10
-731251.99881067825481296
 20
-1298129.80973376287147403
 10
-735256.1341563886962831
 20
-1301379.20398883684538305
 10
-745733.01945688598789275
 20
-1297498.75921036233194172
 10
-755105.2032639670651406
 20
-1287871.22996175638400018
 10
-758044.45036183996126056
 20
-1279013.69225047621876001
 10
-757549.02630371204577386
 20
-1272078.55667473189532757
 10
-745768.47796366072725505
 20
-1261878.28741290350444615
 10
-744959.05401953868567944
 20
-1252375.72959352703765035
 10
-720763.69035676913335919
 20
-1257574.96848011622205377
 10
-718381.44312752736732364
 20
-1256968.99189515202306211
 10
-718514.24580211273860186
 20
-1253169.26629612501710653
 10
-715579.40046766761224717
 20
-1252801.03044681251049042
 10
-714827.39855563209857792
 20
-1255364.87126491754315794
 10
-716575.29754634876735508
 20
-1260033.03293798863887787
 10
-714832.32944268139544874
 20
-1269552.44019771437160671
  0
LWPOLYLINE
  5
a7
  8
Mapa mundo
100
AcDbEntity
100
AcDbPolyline
  6
CONTINUOUS
420
7828584
440
33554586
 90
    11
 70
   129
 43
260.0
 10
-903038.19663694605696946
 20
-1236929.79147404967807233
 10
-897955.39132788591086864
 20
-1236127.06572181126102805
 10
-893466.87582008971367031
 20
-1237843.97616961086168885
 10
-884410.65831442549824715
 20
-1245169.69574846769683063
 10
-883037.44192365708295256
 20
-1250372.86643819813616574
 10
-892180.6179749253205955
 20
-1257449.52259478089399636
 10
-899460.41738824150525033
 20
-1257693.46161078964360058
 10
-904384.11033466819208115
 20
-1254075.98913510562852025
 10
-907290.09902345750015229
 20
-1248893.79729616339318454
 10
-906228.10221011168323457
 20
-1240735.54699427029117942
 10
-903038.19663694605696946
 20
-1236929.79147404967807233
  0
LWPOLYLINE
  5
a8
  8
Mapa mundo
100
AcDbEntity
100
AcDbPolyline
  6
CONTINUOUS
420
7828584
440
33554586
 90
    27
 70
   129
 43
260.0
 10
-783707.12125617521815002
 20
-1207752.06533318990841508
 10
-794390.84036340878810734
 20
-1213232.48844543425366282
 10
-801303.48540528421290219
 20
-1220672.02221785974688828
 10
-807434.54730649956036359
 20
-1224351.80618742876686156
 10
-808198.99639002117328346
 20
-1231748.17621316201984882
 10
-815022.18168890161905438
 20
-1242842.01547783124260604
 10
-816331.45634398271795362
 20
-1249663.65724307089112699
 10
-828973.5769148285035044
 20
-1262867.09451529360376298
 10
-832282.67663417977746576
 20
-1261926.44508859911002219
 10
-843700.96431550453417003
 20
-1264540.63446725346148014
 10
-846562.24033495143521577
 20
-1255511.28852059645578265
 10
-856319.24040495057124645
 20
-1240196.27712343144230545
 10
-856883.14258343330584466
 20
-1234151.51755682332441211
 10
-862923.92582954175304621
 20
-1223343.66996841365471482
 10
-854873.71455342206172645
 20
-1219882.61528466525487602
 10
-848435.20754991681315005
 20
-1223130.21506595774553716
 10
-837710.75986123213078827
 20
-1220038.63553678011521697
 10
-829865.51454301259946078
 20
-1220554.00456318189390004
 10
-822045.99333906010724604
 20
-1218523.63415264873765409
 10
-812984.2324215128319338
 20
-1211707.82458936772309244
 10
-811564.1254116587806493
 20
-1208534.33656789688393474
 10
-802887.00216052122414112
 20
-1205370.222706742817536
 10
-802119.57498204207513481
 20
-1203336.27082226076163352
 10
-790996.36882641725242138
 20
-1204997.85097292484715581
 10
-784814.71246257156599313
 20
-1203242.929908825783059
 10
-782578.5706650041975081
 20
-1204663.81012012809514999
 10
-783707.12125617521815002
 20
-1207752.06533318990841508
  0
LWPOLYLINE
  5
a9
  8
Mapa mundo
100
AcDbEntity
100
AcDbPolyline
  6
CONTINUOUS
420
7828584
440
33554586
 90
    17
 70
   129
 43
260.0
 10
-941634.10309072339441627
 20
-1165194.34345281566493213
 10
-941524.93682237633038312
 20
-1170121.11969095631502569
 10
-939017.07622913387604058
 20
-1175284.78476523468270898
 10
-943852.1842415127903223
 20
-1180860.21642621280625463
 10
-942421.77914652018807828
 20
-1187233.88896291749551892
 10
-944234.91600472328718752
 20
-1192152.91093614953570068
 10
-952954.71718391461763531
 20
-1205096.37296478403732181
 10
-955541.80725609790533781
 20
-1202637.21457226830534637
 10
-956353.60390786058269441
 20
-1194886.48697201255708933
 10
-963397.17392333806492388
 20
-1179933.18788535613566637
 10
-964154.92973366065416485
 20
-1173493.25321421283297241
 10
-966519.34678625233937055
 20
-1170887.91634466126561165
 10
-965705.2272571831708774
 20
-1167522.76118504512123764
 10
-956572.78629449696745723
 20
-1159789.55383840552531183
 10
-949926.66034646064508706
 20
-1162610.0859891683794558
 10
-945837.69348359142895788
 20
-1161386.68480947823263705
 10
-941634.10309072339441627
 20
-1165194.34345281566493213
  0
LWPOLYLINE
  5
aa
  8
Mapa mundo
100
AcDbEntity
100
AcDbPolyline
  6
CONTINUOUS
420
7828584
440
33554586
 90
     6
 70
   129
 43
260.0
 10
475151.31746018218109384
 20
-474858.43107010255334899
 10
472458.77027891325997189
 20
-476008.15536508354125544
 10
470464.19012903788825497
 20
-474068.89830581285059452
 10
470016.56670332851354033
 20
-471012.42060376150766388
 10
471662.67559997725766152
 20
-469153.45985209650825709
 10
475151.31746018218109384
 20
-474858.43107010255334899
  0
LWPOLYLINE
  5
ab
  8
Mapa mundo
100
AcDbEntity
100
AcDbPolyline
  6
CONTINUOUS
420
7828584
440
33554586
 90
     5
 70
   129
 43
260.0
 10
246794.22215589665574953
 20
-412072.97479130048304796
 10
254954.47848374320892617
 20
-414471.16788761341013014
 10
257289.49962025121203624
 20
-413196.35377361037535593
 10
252287.20328471108223312
 20
-420487.48367055389098823
 10
246794.22215589665574953
 20
-412072.97479130048304796
  0
LWPOLYLINE
  5
ac
  8
Mapa mundo
100
AcDbEntity
100
AcDbPolyline
  6
CONTINUOUS
420
7828584
440
33554586
 90
     5
 70
   129
 43
260.0
 10
652668.65999382431618869
 20
-187310.63484350417274982
 10
653952.19742699863854796
 20
-196449.30392983960337006
 10
651982.29989786725491285
 20
-194524.32814689030055888
 10
650511.01742156001273543
 20
-184499.00883544518728741
 10
652668.65999382431618869
 20
-187310.63484350417274982
  0
LWPOLYLINE
  5
ad
  8
Mapa mundo
100
AcDbEntity
100
AcDbPolyline
  6
CONTINUOUS
420
7828584
440
33554586
 90
    21
 70
   129
 43
260.0
 10
1064552.54602055926807225
 20
103354.73112322157248855
 10
1068408.84165232931263745
 20
97265.83593871255288832
 10
1065150.69268245156854391
 20
99127.24107715155696496
 10
1065943.17066009528934956
 20
91753.26216059135913383
 10
1061562.92359424289315939
 20
90534.72971582078025676
 10
1036797.48038998257834464
 20
100675.66992505063535646
 10
1027343.77312242705374956
 20
98182.66307870429591276
 10
1023867.25654390186537057
 20
98905.26980758366698865
 10
1024844.31674207770265639
 20
104465.35969919884519186
 10
1020265.24572694511152804
 20
107730.57122073724167421
 10
1021421.17770773754455149
 20
111236.14243195517337881
 10
1040968.93257387226913124
 20
115122.91991081510786898
 10
1045182.4015770445112139
 20
118123.12390592631709296
 10
1049218.66141031146980822
 20
112482.44231797276006546
 10
1051015.92529907776042819
 20
117256.89033327612560242
 10
1052116.04417252703569829
 20
114483.99422045609389897
 10
1060332.78731927811168134
 20
109679.1795994025451364
 10
1061463.81764980708248913
 20
106309.20282095040602144
 10
1060023.87514574686065316
 20
105462.90903853562485892
 10
1063874.1554493741132319
 20
105127.9111042547156103
 10
1064552.54602055926807225
 20
103354.73112322157248855
  0
LWPOLYLINE
  5
ae
  8
Mapa mundo
100
AcDbEntity
100
AcDbPolyline
  6
CONTINUOUS
420
7828584
440
33554586
 90
     6
 70
   129
 43
260.0
 10
962103.31310120434500277
 20
3628.02336940550003419
 10
960781.14764735917560756
 20
-2205.86788964358902376
 10
958036.12048305559437722
 20
-2305.90306501033046516
 10
956074.63427599065471441
 20
1274.23076458229320451
 10
961420.25934236298780888
 20
5736.50900334838479466
 10
962103.31310120434500277
 20
3628.02336940550003419
  0
LWPOLYLINE
  5
af
  8
Mapa mundo
100
AcDbEntity
100
AcDbPolyline
  6
CONTINUOUS
420
7828584
440
33554586
 90
    12
 70
   129
 43
260.0
 10
841417.45325046894140542
 20
-65401.65415099272649968
 10
844684.65012717281933874
 20
-63508.48438594181789085
 10
846513.12815598002634943
 20
-67640.47990830274648033
 10
841497.06320598744787276
 20
-68587.62580570117279422
 10
835414.21146546152886003
 20
-65635.65698215628799517
 10
831869.38318063318729401
 20
-69937.44333376013673842
 10
829314.82893707521725446
 20
-70698.90281847755250055
 10
828492.89259137527551502
 20
-62960.42020552248868626
 10
831382.74442554032430053
 20
-60820.04545255265111336
 10
832215.81531709176488221
 20
-57695.21618243626289768
 10
837702.74552441365085542
 20
-63904.49105084660550347
 10
841417.45325046894140542
 20
-65401.65415099272649968
  0
LWPOLYLINE
  5
b0
  8
Mapa mundo
100
AcDbEntity
100
AcDbPolyline
  6
CONTINUOUS
420
7828584
440
33554586
 90
    20
 70
   129
 43
260.0
 10
843402.65951401169877499
 20
-18614.26451773254666477
 10
845634.61957801703829318
 20
-25367.22848638807408861
 10
843155.49108098458964378
 20
-26643.59876880082447315
 10
842083.90161787963006645
 20
-30636.46575008482614066
 10
836975.51517637982033193
 20
-37453.07536972663365304
 10
829174.94685400021262467
 20
-42733.35563635772268753
 10
828848.30939297657459974
 20
-49335.85213689784723101
 10
826027.54304885969031602
 20
-49685.19008641714754049
 10
823308.38072102412115782
 20
-46530.30300624144001631
 10
820250.71731265436392277
 20
-47353.69124966164235957
 10
817938.88223803346045315
 20
-45712.56710064077924471
 10
816085.454800920560956
 20
-47787.13641683149762684
 10
812004.30429537431336939
 20
-45151.5015546423237538
 10
811365.23782784014474601
 20
-37453.06799630450404948
 10
818379.04937885305844247
 20
-35185.00355956115527079
 10
816909.8030303925042972
 20
-27965.99500377780714189
 10
821943.55346416297834367
 20
-22445.75700988864628016
 10
825982.78286029270384461
 20
-22019.03539574928799993
 10
835849.69640515989158303
 20
-16321.19221924413250235
 10
843402.65951401169877499
 20
-18614.26451773254666477
  0
LWPOLYLINE
  5
b1
  8
Mapa mundo
100
AcDbEntity
100
AcDbPolyline
  6
CONTINUOUS
420
7828584
440
33554586
 90
    52
 70
   129
 43
260.0
 10
911112.59325469098985195
 20
39397.90779807856597472
 10
909912.59920703177340329
 20
37876.44816480069130193
 10
908698.38252379279583693
 20
39111.01968597555242013
 10
905023.35666998627129942
 20
37752.19182978947355878
 10
902356.08500902785453945
 20
40759.39926590331742773
 10
901832.01426133734639734
 20
46707.37588463816791773
 10
910727.30316588247660547
 20
53126.84421150608250173
 10
914427.3164826532592997
 20
58176.09402876424428541
 10
918734.16680465557146817
 20
60156.90306628026155522
 10
923267.98937271407339722
 20
67153.41767481646093074
 10
925030.57140302879270166
 20
67368.00989149561792146
 10
937487.49422391480766237
 20
80483.55103707575472072
 10
940092.62447282555513084
 20
80807.05066401133080944
 10
947203.88370128953829408
 20
86436.59347713326860685
 10
959113.62344470876269042
 20
90386.71724364355031867
 10
967543.80510991404298693
 20
95163.99682334807584994
 10
970718.66159798949956894
 20
94024.29938819726521615
 10
962914.95517506508622319
 20
87775.60270217861398123
 10
961255.60568841570056975
 20
88103.00313154117611703
 10
961525.41792403918225318
 20
84479.95243731123628095
 10
970974.13226680888328701
 20
87025.10144306205620524
 10
969843.83909266220871359
 20
82502.39098966542223934
 10
964936.97562346048653126
 20
79326.92293569973844569
 10
966423.21098579140380025
 20
74637.84295852690411266
 10
968948.26461801468394697
 20
72734.97204876340401825
 10
974494.55952662008348852
 20
71247.64443631991161965
 10
980394.69709916308056563
 20
72007.84064595159725286
 10
985225.92162759229540825
 20
76561.8245656649232842
 10
996038.55289223557338119
 20
74046.22684395873511676
 10
995588.42764483927749097
 20
63785.08532963556353934
 10
991638.56052329787053168
 20
59137.66259623137739254
 10
992449.52625817619264126
 20
55701.88983575200109044
 10
986293.85961063392460346
 20
47186.56921971970587038
 10
984264.91662639053538442
 20
41477.02089004734443733
 10
984259.59680605167523026
 20
35171.17620442228508182
 10
982971.62666040763724595
 20
35849.49372580601630034
 10
979804.31840840191580355
 20
27781.33146756176574854
 10
967212.25588882400188595
 20
15908.88488044209407235
 10
957077.12507166573777795
 20
25298.67158095277409302
 10
945536.50372455071192235
 20
23913.87771428150881547
 10
942011.37520225904881954
 20
24875.82789152772238594
 10
936513.32458763150498271
 20
33948.05403341061173705
 10
937542.22855087998323143
 20
38655.86659801831410732
 10
936276.37527359358500689
 20
40847.3170990291328053
 10
930462.75322255550418049
 20
44126.3668918351031607
 10
928107.36195972817949951
 20
44525.42221332484768936
 10
921122.61426545295398682
 20
39929.02108768167090602
 10
917686.20465815777424723
 20
32887.34920241767395055
 10
915346.31818116479553282
 20
32313.71144556490980904
 10
912829.360189872328192
 20
36040.22107391202735016
 10
913696.18034546170383692
 20
37310.98942377854837105
 10
911112.59325469098985195
 20
39397.90779807856597472
  0
LWPOLYLINE
  5
b2
  8
Mapa mundo
100
AcDbEntity
100
AcDbPolyline
  6
CONTINUOUS
420
7828584
440
33554586
 90
     5
 70
   129
 43
260.0
 10
832717.86083916283678263
 20
357838.64594092458719388
 10
829630.21406964445486665
 20
358592.84812243533087894
 10
830854.65292709076311439
 20
362629.06207645626273006
 10
834010.77619066089391708
 20
358291.87301730591570958
 10
832717.86083916283678263
 20
357838.64594092458719388
  0
LWPOLYLINE
  5
b3
  8
Mapa mundo
100
AcDbEntity
100
AcDbPolyline
  6
CONTINUOUS
420
7828584
440
33554586
 90
   667
 70
   129
 43
260.0
 10
251528.50024231569841504
 20
-387874.81968651193892583
 10
249762.64386268929229118
 20
-387926.61068214412080124
 10
248952.75967246640357189
 20
-385500.82726370572345331
 10
243605.38156664144480601
 20
-383807.45473512046737596
 10
242181.11297575183562003
 20
-387286.86306322430027649
 10
242779.12396551817073487
 20
-396821.08821961819194257
 10
227337.92810530055430718
 20
-403494.55529906635638326
 10
225633.13783191633410752
 20
-400171.66452381131239235
 10
220171.04348497252794914
 20
-396939.21131064393557608
 10
218049.47779758021351881
 20
-397787.61227657354902476
 10
210508.04114120095619
 20
-395134.19117480679415166
 10
199345.67855561565374956
 20
-384451.77402265043929219
 10
193391.9390806031296961
 20
-385371.93266848003258929
 10
188572.87055156065616757
 20
-384085.79875697212992236
 10
182247.64134173476486467
 20
-374095.49676099204225466
 10
177276.35934207774698734
 20
-371577.90520356548950076
 10
174905.35223236196907237
 20
-364252.89361666585318744
 10
163270.02569476375356317
 20
-346337.33598816464655101
 10
165110.99581705484888516
 20
-345949.87650632375152782
 10
168015.34684556763386354
 20
-348504.98812005331274122
 10
170438.47490080076386221
 20
-353020.42396421666489914
 10
175018.75759098920389079
 20
-348392.78782512614270672
 10
170992.80445042182691395
 20
-348771.75165213010041043
 10
169906.45926332968520001
 20
-341587.28353916702326387
 10
165504.56823216046905145
 20
-337607.11964926798827946
 10
155479.69891851866850629
 20
-335070.33702213980723172
 10
151425.37148694618372247
 20
-324440.99878391082165763
 10
153443.41705319262109697
 20
-320592.23960602062288672
 10
159541.63870632398175076
 20
-317444.62484457681421191
 10
160017.61287055010325275
 20
-307582.42443043534876779
 10
162986.08498474859516136
 20
-304919.22761069721309468
 10
169479.45008148427587003
 20
-305278.56650047254515812
 10
172693.35334242586395703
 20
-301962.40309287799755111
 10
168739.11302290958701633
 20
-304120.21922490035649389
 10
164799.09225752315251157
 20
-302805.99486841895850375
 10
159897.10007922179647721
 20
-305257.35278156993445009
 10
159395.5569573120737914
 20
-314682.49951428797794506
 10
155730.29843285502283834
 20
-316051.29836383071960881
 10
145485.15140881965635344
 20
-299413.73601815581787378
 10
123409.14715649091522209
 20
-284030.67275324807269499
 10
110154.70607981973444112
 20
-276978.02994888328248635
 10
107888.22918830461276229
 20
-271623.28311990614747629
 10
113532.43992623963276856
 20
-262650.43482798320474103
 10
106662.60076292441226542
 20
-269552.1251428026589565
 10
103874.97969886614009738
 20
-269591.56636462546885014
 10
106987.74595267897529993
 20
-276377.47171935980441049
 10
91596.94154832961794455
 20
-270797.92233267845585942
 10
89273.12816416249552276
 20
-271877.67574765009339899
 10
92992.62544758041622117
 20
-272754.23312509630341083
 10
71486.58528798086626921
 20
-273510.98260923352790996
 10
66751.71847171512490604
 20
-275952.53432161483215168
 10
63810.37795992627798114
 20
-274543.70138066593790427
 10
58755.26264985241868999
 20
-243197.44019915215903893
 10
54670.29161557997576892
 20
-237368.67989152230438776
 10
53309.89667592046316713
 20
-233067.43085146427620202
 10
54640.81485539470304502
 20
-229258.78530855808639899
 10
58386.97510123562824447
 20
-225292.69110854156315327
 10
60746.57728871567087481
 20
-214925.09248391070286743
 10
70331.38520542622427456
 20
-205771.38092467040405609
 10
72718.70005034503992647
 20
-201439.77495652317884378
 10
75595.72792696660326328
 20
-187399.63304947680444457
 10
85498.12893019884359092
 20
-185104.96294532902538776
 10
88650.76363315671915188
 20
-180275.40246753109386191
 10
97388.64560750043892767
 20
-182112.07566538607352413
 10
103586.06663126060448121
 20
-162515.6502015158184804
 10
96941.02780077839270234
 20
-162459.26781909904093482
 10
91550.86505020008189604
 20
-165436.30335084325633943
 10
89019.43019264233589638
 20
-164326.33994290634291247
 10
84526.3430755059234798
 20
-154554.89062614145223051
 10
71253.40433691293583252
 20
-137753.25659845536574721
 10
67559.78314050064363983
 20
-135366.99398190816282295
 10
69635.35939520207466558
 20
-132787.77664749338873662
 10
68700.90968208285630681
 20
-130053.55325947598612402
 10
71074.2905214459169656
 20
-123137.02844673725485336
 10
75131.83118710806593299
 20
-116278.57936346688074991
 10
73181.15387368929805234
 20
-113141.24241351008822676
 10
73845.45078683992323931
 20
-105682.50794581735681277
 10
78848.84251596576359589
 20
-99762.65665885237103794
 10
85292.90141049477097113
 20
-93794.84381020956789143
 10
93490.537779798018164
 20
-89720.52906823318335228
 10
92560.58412440508254804
 20
-84240.38047250098315999
 10
100452.54930891511321533
 20
-72002.48209260233852547
 10
99304.3749766592081869
 20
-66152.73106940893922001
 10
94649.97385915277118329
 20
-61504.92737776411377126
 10
90108.89508552942425013
 20
-61191.08882583037484437
 10
87011.97887625829025637
 20
-62887.1265351227557403
 10
83515.02781613254046533
 20
-61149.20005855929048266
 10
84479.67951307924522553
 20
-56915.8563519827221171
 10
83398.39287497846817132
 20
-54804.4216652622926631
 10
75575.2357528544816887
 20
-50368.14494598747114651
 10
76135.93623836287588347
 20
-43775.69304386566363974
 10
69523.8096341815253254
 20
-35988.09202049321174854
 10
69892.34047994096181355
 20
-21984.41766314960113959
 10
64433.87975163041119231
 20
-20189.83246755770232994
 10
61526.32840871070948197
 20
-15749.43888700086972676
 10
57159.32987256047636038
 20
-12891.0669510727366287
 10
53022.02613943450705847
 20
-8089.3359600972116823
 10
49523.93077230222115759
 20
1152.88291987659113147
 10
67927.07619852227799129
 20
697.62470789948054062
 10
76978.29232679803681094
 20
2412.45788619686481979
 10
81526.75249451493436936
 20
1191.11303322289677453
 10
95378.60463149055431131
 20
3450.59017897322974022
 10
97676.67949209797370713
 20
12385.97625058079029259
 10
97017.03828663892636541
 20
15522.4366839886733942
 10
103146.28861574923212174
 20
22196.58907120058938744
 10
103270.01305177090398502
 20
28419.36509782905704924
 10
107020.13712214236147702
 20
38606.47202434937207727
 10
100391.77815698906488251
 20
48926.92558744658890646
 10
95249.08062149424222298
 20
50651.17808721835899632
 10
92833.76890827479655854
 20
57542.51810195133293746
 10
95100.35619417839916423
 20
62471.93353417114121839
 10
101326.64952643640572205
 20
65826.32339362826314755
 10
105209.97701950889313594
 20
65934.9204707703756867
 10
107039.08367898990400136
 20
68594.19991157030744944
 10
113719.34738141762500163
 20
77268.14504659816157073
 10
108804.81534874856879469
 20
83095.79250073211733252
 10
108256.83387324864452239
 20
86709.62777732845279388
 10
111920.11816451522463467
 20
94816.4989326321228873
 10
108596.14463608049845789
 20
102275.19610777280468028
 10
111550.76076819164154585
 20
109534.00583299773279577
 10
109267.79059354307537433
 20
121755.10247839939256664
 10
109341.39072997072071303
 20
130946.14902815895038657
 10
111039.63908460673701484
 20
132814.09250917460303754
 10
100342.56885099154897034
 20
148939.74567016819491982
 10
101365.73598249480710365
 20
153919.89083552840747871
 10
111686.93519551283679903
 20
155882.9356712200678885
 10
114936.75669289848883636
 20
160870.08606858676648699
 10
115651.99371941764547955
 20
166432.57427922842907719
 10
124558.60043363031581976
 20
178663.84271196566987783
 10
131519.95220423172577284
 20
179130.79624082832015119
 10
138269.95420329956687056
 20
182842.39487419006763957
 10
145018.38967970188241452
 20
191249.91359002626268193
 10
146726.03913366119377315
 20
191284.27763579026213847
 10
146681.41796150029404089
 20
193488.28653371502878144
 10
151503.04196026211138815
 20
195109.20380741084227338
 10
154776.79768930535647087
 20
204733.68069472015486099
 10
160740.1601480059325695
 20
213007.10182661656290293
 10
155071.06152991516864859
 20
219322.97271712237852626
 10
147182.78922528121620417
 20
223087.63781113977893256
 10
139252.48724929854506627
 20
224367.73902489899774082
 10
135786.02583693957421929
 20
221694.47791428613709286
 10
132567.01845552967279218
 20
222280.25648488910519518
 10
129417.57006134980474599
 20
231202.78043038005125709
 10
133575.71346258188714273
 20
245467.51158773113274947
 10
129262.60775798569375183
 20
247107.64123337998171337
 10
129852.80241843653493561
 20
251915.75288166038808413
 10
128342.32864627445815131
 20
255063.60505036561517045
 10
126309.10559839120833203
 20
255879.84312689179205336
 10
125245.63800495455507189
 20
253486.75214019359555095
 10
116542.96344583069731016
 20
252216.25760394957615063
 10
114049.28156542965734843
 20
252922.21533468255074695
 10
110950.40727885191154201
 20
257555.28597549031837843
 10
108412.32234139100182801
 20
257966.76655852407566272
 10
107940.17408172352588736
 20
254646.82527625715010799
 10
105991.7618802760989638
 20
253394.59821335357264616
 10
98513.16866093067801557
 20
253332.93985849630553275
 10
95305.40933680080343038
 20
255470.86952808359637856
 10
89713.01010472109192051
 20
253067.13810200162697583
 10
80662.80598125525284559
 20
257815.28628416688297875
 10
77357.69616166666673962
 20
255332.98793416298576631
 10
76669.93214760700357147
 20
247043.1597858264867682
 10
73200.83112915800302289
 20
244178.26410517562180758
 10
61559.72815685931709595
 20
241663.06243255257140845
 10
57372.86787636143708369
 20
237618.69585456766071729
 10
55116.95511928685300518
 20
242775.61672928836196661
 10
51249.10223142697213916
 20
244130.13191138292313553
 10
48712.66288143964629853
 20
240453.07006133973482065
 10
43784.79345058652688749
 20
239697.90523699729237705
 10
42383.13144852589903167
 20
241488.90719628287479281
 10
43645.06644852639146848
 20
244989.29191699737566523
 10
39178.18140835077792872
 20
245155.61790474914596416
 10
34111.82223878460354172
 20
247833.05656011827522889
 10
19638.97452060336217983
 20
243189.4533590454084333
 10
18833.01256984424617258
 20
249397.74271111970301718
 10
17201.11303333661999204
 20
248762.24174091097665951
 10
15637.61638624002080178
 20
244181.1519001979904715
 10
11579.54659587697642564
 20
243808.92002702940953895
 10
6868.35707081882992497
 20
238506.24017463729251176
 10
-3835.32215913913523764
 20
238129.22983665860374458
 10
-3648.43061637147820875
 20
242265.06953147653257474
 10
-7246.91308439978274691
 20
244305.43125992597197182
 10
-8057.4765271259493602
 20
248358.5828652594354935
 10
-4063.80563474522250544
 20
255102.32324366242391989
 10
2077.61095071723912042
 20
260152.53842364568845369
 10
3148.44474151182157584
 20
263487.81960246729431674
 10
-372.72765343394542015
 20
267040.13558928907150403
 10
-5868.39235721269596979
 20
266669.46748654113616794
 10
-5888.56863397374763736
 20
273250.35693254723446444
 10
-7376.88899791339645162
 20
276009.84190570825012401
 10
-17671.90252170559688238
 20
270259.37938370724441484
 10
-40877.10382117712288164
 20
264727.24395916162757203
 10
-44549.16606705646699993
 20
259060.91078376688528806
 10
-51201.44323377899127081
 20
255680.71509821282234043
 10
-54935.26208720948488917
 20
250899.50965462694875896
 10
-60714.61709562937903684
 20
246860.52370600117137656
 10
-62088.21572208148427308
 20
247360.51300291621009819
 10
-63046.78138458552712109
 20
272450.33888275182107463
 10
-57332.89596870125387795
 20
273671.77759540610713884
 10
-57085.40482327908830484
 20
275568.18554402387235314
 10
-58997.00289504547981778
 20
277052.9360689491732046
 10
-55558.45542622162611224
 20
281097.56544393993681297
 10
-40572.96192555670131696
 20
292598.03413672873284668
 10
-40650.45448477487661876
 20
297751.28128869814099744
 10
-44668.41900938414619304
 20
292297.45487638399936259
 10
-53787.93739161722623976
 20
288035.6772530046873726
 10
-60600.38832149125664728
 20
287684.28206288273213431
 10
-59379.72179092253645649
 20
293052.85550031793536618
 10
-57239.83340687029703986
 20
292131.05497894569998607
 10
-57487.50208973243570654
 20
297123.34107549849431962
 10
-52644.65692163733183406
 20
297207.3418546742759645
 10
-42960.72572163066070061
 20
308097.97644929040689021
 10
-46189.28324086892826017
 20
307928.7326336134574376
 10
-51411.74186373002157779
 20
304362.6238372239167802
 10
-58489.44976764036982786
 20
304029.50264452601550147
 10
-60448.60430147295846837
 20
305266.63473775738384575
 10
-62096.20142761476745363
 20
309828.50921766040846705
 10
-66573.4934335235884646
 20
311388.62263068906031549
 10
-61500.4902036981729907
 20
314370.71373069658875465
 10
-59832.36707653684425168
 20
313072.42292028368683532
 10
-60958.31910415333550191
 20
311337.31226802978198975
 10
-57033.12226516332157189
 20
310476.91708989272592589
 10
-55872.21884082603355637
 20
315010.41198730299947783
 10
-56644.63333296811470063
 20
322434.52904051478253677
 10
-52716.02210715063120006
 20
326313.71292510826606303
 10
-48993.96133144036866724
 20
335584.79566224460722879
 10
-53463.3547316162075731
 20
330301.86696525994921103
 10
-57896.34539255486015463
 20
334988.98775086522800848
 10
-60356.94705136021366343
 20
327795.32781017333036289
 10
-63193.23332846567791421
 20
328706.59044958394952118
 10
-65917.10945062075916212
 20
326616.31610606529284269
 10
-64768.3153502737332019
 20
325190.59886395442299545
 10
-68695.07325689474237151
 20
323614.49909494782332331
 10
-69621.40402411969262175
 20
320518.09221522964071482
 10
-72171.56442384245747235
 20
318265.73477087705396116
 10
-73373.91564642390585504
 20
319657.07823831244604662
 10
-73907.49766867834841833
 20
323550.4198889181134291
 10
-76965.31159224147268105
 20
325586.26069604407530278
 10
-73490.89116469376313034
 20
337944.2423230487620458
 10
-62601.42572396242030663
 20
347235.46432152087800205
 10
-61697.26553777966910275
 20
351540.00648360000923276
 10
-63385.51201954366115388
 20
352482.05303545785136521
 10
-63748.31648443775338819
 20
349944.77979141671676189
 10
-66916.22925394878257066
 20
347587.89306906430283561
 10
-74926.10881742014316842
 20
347629.53459197870688513
 10
-76583.82216247587348334
 20
343755.33297036617295817
 10
-79171.356585475281463
 20
343540.36685781041160226
 10
-81943.08515475458989386
 20
349712.09194133745040745
 10
-79074.82586425627232529
 20
351957.10583617427619174
 10
-82392.88983524331706576
 20
354681.44415563280927017
 10
-81764.74023401395243127
 20
361351.41961277869995683
 10
-86730.28536443850316573
 20
364943.31515088945161551
 10
-86755.5732188605616102
 20
362416.3166398317553103
 10
-89057.93761469481978565
 20
363960.40066592703806236
 10
-93113.90289427015522961
 20
358805.77606792788719758
 10
-94605.19242236051650252
 20
362764.11908874753862619
 10
-91126.7781455270742299
 20
372496.4795238230144605
 10
-93397.37926278916711453
 20
376772.59712254122132435
 10
-88266.55780796872568317
 20
383309.96076234057545662
 10
-86021.58893868431914598
 20
381933.95382585161132738
 10
-79290.25852672560722567
 20
386165.60401894390815869
 10
-87481.37433647266880143
 20
385904.11615927837556228
 10
-88207.75682125362800434
 20
387853.12253652035724372
 10
-81666.02747506661398802
 20
392903.11478081438690424
 10
-78632.31362976098898798
 20
391533.6202506857807748
 10
-74720.85868760585435666
 20
392249.10069198766723275
 10
-71350.82037984127236996
 20
396923.89341161795891821
 10
-69268.86889263607736211
 20
395582.18074892822187394
 10
-64936.071235013398109
 20
396475.24197406461462379
 10
-63524.54434766535268864
 20
397542.42461116821505129
 10
-66189.4235299897409277
 20
398114.91255819477373734
 10
-69390.19752431749657262
 20
401822.51337813143618405
 10
-56508.72857702737383079
 20
408167.94708805967820808
 10
-52930.64183429391414393
 20
404942.70985290937824175
 10
-45444.81508655108336825
 20
402772.6309903118526563
 10
-37263.23164876046212157
 20
406144.93588070932310075
 10
-34503.69657586522225756
 20
404909.70436894043814391
 10
-25116.41530905358013115
 20
411767.01107746869092807
 10
-20677.48434762987744762
 20
412927.36805909581016749
 10
-17876.02289246904183528
 20
408778.41823619260685518
 10
-16006.9205821426876355
 20
415111.77648311457596719
 10
-10865.3893146382051782
 20
412909.00298117456259206
 10
-6253.65531836577247304
 20
404824.74052973825018853
 10
-6199.55023431910012732
 20
413432.0210575801320374
 10
-3425.4878792880549554
 20
416278.10406685259658843
 10
-10660.30564254070850438
 20
417506.23227684129960835
 10
-13926.61665604144582176
 20
420152.29124159133061767
 10
-3695.5388543328722335
 20
422607.27653678460046649
 10
-2868.27716886467169388
 20
424686.39161762519506738
 10
-10049.00230174815442297
 20
423106.51743723062099889
 10
-8948.34512172483300674
 20
423932.26623213978018612
 10
-10046.63418330543208867
 20
424693.27547767327632755
 10
-12611.23780674505360366
 20
422581.8724343070643954
 10
-16183.82809518550675421
 20
422426.77519452321575955
 10
-14837.80514796636816754
 20
428133.43249046697746962
 10
-12852.01949777361187444
 20
429245.98149231052957475
 10
-14504.81207682506283163
 20
433046.85412926028948277
 10
-8008.12863517378900724
 20
433967.24641995964339003
 10
3746.92662791324482896
 20
442960.05385462730191648
 10
4719.82776332697903854
 20
441088.99286906054476276
 10
6554.83993183567690721
 20
441443.16884637490147725
 10
5451.71362322530785605
 20
441442.18019285367336124
 10
6553.35241934876012238
 20
442962.21264345379313454
 10
4769.28026258541285642
 20
445411.01162621553521603
 10
5947.44694344406798336
 20
448843.36263349035289139
 10
12242.34257230819275719
 20
449787.76984952948987484
 10
18080.80114577300992096
 20
455190.04304323653923348
 10
20313.06262835236339015
 20
454852.86468335695099086
 10
23098.26363319811935071
 20
449138.32829164736904204
 10
21397.34080128987625358
 20
449824.35682635864941403
 10
20910.56542468648694921
 20
446102.05040157493203878
 10
18109.74866218325769296
 20
444502.53686504910001531
 10
22156.71253537266602507
 20
444297.68841688008978963
 10
21404.637292512878048
 20
447545.80154909106204286
 10
25308.00208938729701913
 20
447559.43812749651260674
 10
25874.27580738775577629
 20
450409.85280588263412938
 10
33849.93763112593296682
 20
454622.9811267030891031
 10
36022.37454979780159192
 20
458273.8787813795497641
 10
37420.70274269263609312
 20
455957.71053569472860545
 10
35203.92138931722001871
 20
451388.37033034872729331
 10
39632.03578150459361495
 20
453764.18051859945990145
 10
41695.19759478663036134
 20
446651.44218822830589488
 10
44055.38530271441413788
 20
449935.35020187444752082
 10
47671.14398169596097432
 20
451479.30922530795214698
 10
61771.50800771106150933
 20
445866.32906173181254417
 10
66937.79307256219908595
 20
436859.75950677058426663
 10
70782.04565150372218341
 20
435013.78705037740292028
 10
69640.16739268862875178
 20
433559.54569628374883905
 10
70732.35489020792010706
 20
432241.681274346599821
 10
72950.34836782075581141
 20
433594.68979033367941156
 10
87973.03727737125882413
 20
432748.28010021342197433
 10
89096.50420219707302749
 20
429855.6835760110989213
 10
87871.03146703922539018
 20
424333.20129231124883518
 10
91445.66828031989280134
 20
432491.70476840797346085
 10
96069.99639230087632313
 20
433591.72581393440486863
 10
115494.53710551100084558
 20
432961.63071254949318245
 10
119900.30783655219420325
 20
435426.61637747148051858
 10
131159.84090247709536925
 20
432127.64698173460783437
 10
134954.35208190805860795
 20
433034.98365523718530312
 10
134412.43238247247063555
 20
435294.50790020922431722
 10
138602.96767460450064391
 20
433796.74316746031399816
 10
146909.06714596136589535
 20
434805.56621158204507083
 10
154258.71830069055431522
 20
438001.06409784592688084
 10
157923.39594549135654233
 20
435806.51215314061846584
 10
166734.82734249558416195
 20
435386.31074807449476793
 10
170370.14778257327270694
 20
437563.11089186632307246
 10
179748.94017319360864349
 20
437807.87210213288199157
 10
179604.8280202905589249
 20
443183.38859317015158013
 10
183130.5364188406674657
 20
443790.13966533332131803
 10
183977.54285919715766795
 20
446206.79592446231981739
 10
187918.85931682217051275
 20
444931.82369524030946195
 10
195846.61565665551461279
 20
436054.96664825646439567
 10
196776.66803603566950187
 20
437661.37183301901677623
 10
198405.71318940058699809
 20
435297.52979524596594274
 10
221342.81951543639297597
 20
435358.36234489642083645
 10
219898.82546543562784791
 20
429893.41487017110921443
 10
224400.03533640620298684
 20
433608.65523077204125002
 10
229004.87502131055225618
 20
433659.97215655620675534
 10
236269.26399597150157206
 20
429538.75401966663775966
 10
246043.88908677303697914
 20
428544.64205258712172508
 10
248917.83264865499222651
 20
426685.48955190152628347
 10
255584.57145163239329122
 20
425839.60384230088675395
 10
258292.39939422305906191
 20
427387.27319573698332533
 10
275217.9094623276614584
 20
421975.97176187875447795
 10
293195.28390264074550942
 20
421145.52485558058833703
 10
295893.69025262398645282
 20
419123.41613306599901989
 10
299783.35367093625245616
 20
421410.61660373193444684
 10
304193.72230773163028061
 20
419492.35783494188217446
 10
305725.32377756451023743
 20
421351.13107978989137337
 10
319531.78154444484971464
 20
422625.4030560472747311
 10
333516.5587673726840876
 20
428551.1439610494999215
 10
336131.87369496910832822
 20
427094.814706438803114
 10
339264.85603680380154401
 20
431580.82564049487700686
 10
348320.19254805432865396
 20
434260.65715007460676134
 10
353081.7328894006786868
 20
432523.28532359882956371
 10
347195.922800536849536
 20
428417.74762722762534395
 10
349266.22372403735062107
 20
426203.64182630326831713
 10
352983.8101818750728853
 20
429543.89205243089236319
 10
355277.58003122743684798
 20
428077.68244407745078206
 10
354228.30951239285059273
 20
431753.87880895048147067
 10
356421.83703165431506932
 20
431176.04283712414326146
 10
356341.33356303564505652
 20
432695.24287176044890657
 10
368196.89370677288388833
 20
437687.74593416217248887
 10
370232.02797908644424751
 20
437650.00696308386977762
 10
370182.78187182091642171
 20
435728.89175109105417505
 10
374427.34714786615222692
 20
433678.17984694766346365
 10
380480.92558489291695878
 20
432643.66379815223626792
 10
380840.66660489066271111
 20
430432.30740275426069275
 10
377441.34934972354676574
 20
431057.20803547883406281
 10
375023.47707407118286937
 20
428314.07117216911865398
 10
378426.41989728814223781
 20
426463.32916304847458377
 10
379452.27586299425456673
 20
428562.18768074893159792
 10
380402.61332546267658472
 20
427304.90724317211424932
 10
385089.95813624671427533
 20
427965.90729147411184385
 10
398873.64699941035360098
 20
425120.07599189545726404
 10
403926.95930030947783962
 20
422110.60443342372309417
 10
407067.14328988594934344
 20
421620.86641317402245477
 10
408835.16956536611542106
 20
423157.27673437254270539
 10
415744.08985596254933625
 20
418450.65944948379183188
 10
413654.2149439508211799
 20
424485.88581084151519462
 10
420613.34382219554390758
 20
429482.96429039986105636
 10
419971.39228089450625703
 20
430968.09751746436813846
 10
434236.15151054540183395
 20
434298.13192098512081429
 10
438764.36915602773660794
 20
431467.87102989864069968
 10
441136.42797634721500799
 20
425265.24781365587841719
 10
443229.88215156260412186
 20
430357.18220357369864359
 10
457937.67486338398884982
 20
426730.69503694825107232
 10
464474.13384698971640319
 20
422563.51538770244223997
 10
474583.58664463693276048
 20
420384.0228150921757333
 10
481667.38804578263079748
 20
422144.39483638701494783
 10
487443.84359438595129177
 20
419504.32510475197341293
 10
500578.75576957734301686
 20
426684.91314182669157162
 10
504141.9407123476266861
 20
424481.13858955109026283
 10
505219.057724391866941
 20
425393.90585264755645767
 10
503394.48114280519075692
 20
426844.52934600808657706
 10
512232.11559065396431834
 20
433372.96831272216513753
 10
513702.52076197398127988
 20
432470.96485322096850723
 10
513852.7410898573580198
 20
427464.73994936980307102
 10
516266.03715928696328774
 20
426508.15592894679866731
 10
518075.40923691156785935
 20
422607.86828509403858334
 10
525749.34218843909911811
 20
423508.108180096372962
 10
528869.35589671961497515
 20
418100.38391075824620202
 10
531616.94466643850319088
 20
418830.15033784636761993
 10
533649.18718167976476252
 20
422622.46359850536100566
 10
544116.68795269157271832
 20
421324.64221756783081219
 10
546645.20078898582141846
 20
419103.59270423202542588
 10
545802.1797233447432518
 20
406947.89811920892680064
 10
541223.47377841419074684
 20
400601.93677199975354597
 10
545936.91529838100541383
 20
395822.466350743023213
 10
551574.81118196318857372
 20
396007.88198320101946592
 10
552493.03874228696804494
 20
402768.56260095397010446
 10
555535.34045702475123107
 20
405309.1093545364565216
 10
557414.25953516992740333
 20
404971.54169453924987465
 10
555775.89768998010549694
 20
400396.7058861322584562
 10
558892.49833897163625807
 20
398116.48730473220348358
 10
563688.66859164286870509
 20
397664.75694116344675422
 10
569460.42321930092293769
 20
394391.30582324473652989
 10
579546.55277257994748652
 20
393112.48526401171693578
 10
586875.34578809479717165
 20
389393.66273199470015243
 10
599625.33817226195242256
 20
391103.5776702897856012
 10
601877.31003281625453383
 20
390543.49166243913350627
 10
603344.8747401675209403
 20
387561.69980044878320768
 10
604065.71833334350958467
 20
383824.63855124998372048
 10
611932.57927964441478252
 20
380601.0018091308302246
 10
619190.23728183913044631
 20
372607.06040286156348884
 10
621807.56521574570797384
 20
374140.92200054903514683
 10
621711.6473266618559137
 20
376799.26057066983776167
 10
630889.5805542126763612
 20
375694.0133104216074571
 10
636406.13598744559567422
 20
380528.86462280678097159
 10
637801.45467543869744986
 20
380177.68139089841861278
 10
638632.31178726104553789
 20
382222.34318164538126439
 10
640197.90307729283813387
 20
381057.62297056411625817
 10
646391.78736749326344579
 20
376638.905632107576821
 10
652333.4594084566924721
 20
378224.55703331483528018
 10
652996.13839150290004909
 20
374400.84480442124186084
 10
656636.78889022243674845
 20
369829.05295375391142443
 10
663542.93765947024803609
 20
366934.83441312960349023
 10
680157.04103164677508175
 20
373195.37299124669516459
 10
686007.45220809814054519
 20
371969.68478366144699976
 10
689507.66210568370297551
 20
367639.7662084634648636
 10
695422.29754118795972317
 20
373717.0096519187791273
 10
698666.56304011482279748
 20
370412.41525823198026046
 10
704975.05258057045284659
 20
371651.38845905789639801
 10
719536.25524471479002386
 20
372489.35039358254289255
 10
721024.91642173053696752
 20
373964.88003064482472837
 10
720320.49044183338992298
 20
377677.56150234636152163
 10
718003.94007721787784249
 20
379107.65556654374813661
 10
719201.40275398641824722
 20
381324.31010144233005121
 10
718163.85683606844395399
 20
382484.72267443448072299
 10
718782.14122675196267664
 20
389714.9232635868829675
 10
724265.68347078876104206
 20
391066.42932798975380138
 10
735435.95666643476579338
 20
388600.64048812189139426
 10
741099.54247807466890663
 20
386017.53699438762851059
 10
743344.59759754862170666
 20
387583.55606457509566098
 10
746209.96048871241509914
 20
386122.0439901715144515
 10
755014.7880886064376682
 20
386069.62768669537035748
 10
760925.67211662512272596
 20
379452.68296597868902609
 10
776573.463448166847229
 20
381424.17442112159915268
 10
776396.2772568070795387
 20
379803.60050457995384932
 10
778367.3198337220819667
 20
379156.73368010960984975
 10
785122.70269332476891577
 20
369636.29947820858797058
 10
784082.18268382374662906
 20
362066.61587361944839358
 10
785907.29514071345329285
 20
362524.51466463785618544
 10
787980.53291207528673112
 20
359675.38060210208641365
 10
784712.20816491940058768
 20
357353.25316687283338979
 10
788690.47336151462513953
 20
351934.81770683702779934
 10
794418.22064599778968841
 20
352010.24466870434116572
 10
798732.36442023096606135
 20
355162.88836898986482993
 10
804065.63796963915228844
 20
357285.80540423712227494
 10
805099.33351185498759151
 20
360924.59022189432289451
 10
807606.4452016664436087
 20
360425.00775537936715409
 10
809149.25811031134799123
 20
361977.64296910492703319
 10
809692.79167155083268881
 20
361018.83517911669332534
 10
828169.66536183003336191
 20
356799.86326924571767449
 10
832088.90055677376221865
 20
349410.23092696152161807
 10
836110.07268935116007924
 20
347619.67648685106541961
 10
840424.20940395398065448
 20
349362.85416828421875834
 10
845711.18739617126993835
 20
356589.113456615654286
 10
857116.85973509005270898
 20
359393.53325545793632045
 10
869702.99405200395267457
 20
355888.11438326770439744
 10
872048.00344948202837259
 20
352597.49199598445557058
 10
878132.38982595398556441
 20
350392.71466032083844766
 10
880503.9013714863685891
 20
353698.86920937290415168
 10
890108.22537113749422133
 20
353430.11917682259809226
 10
887817.40443946677260101
 20
356960.76701676455559209
 10
891474.33606495545245707
 20
361200.38410454289987683
 10
899484.77775558654684573
 20
362898.64297953818459064
 10
904084.38990270369686186
 20
367612.64910880126990378
 10
908163.46142988791689277
 20
368475.78798439702950418
 10
910592.63850569864735007
 20
370942.64411268528783694
 10
918560.05224255821667612
 20
371481.82140891219023615
 10
923789.89827031351160258
 20
367823.51299755583750084
 10
931541.03672376810573041
 20
369353.05456304689869285
 10
931174.87108944484498352
 20
365350.96360756590729579
 10
933297.73329053388442844
 20
360303.85933757206657901
 10
944460.5397890763124451
 20
358811.67748681962257251
 10
941199.38923594413790852
 20
348947.34648157918127254
 10
936827.50633913045749068
 20
348342.49330890324199572
 10
933225.53014897252433002
 20
350116.26352051366120577
 10
929596.39451218536123633
 20
344947.04314754152437672
 10
931056.79961948760319501
 20
336326.08364888257347047
 10
939757.10495656577404588
 20
329318.51819770154543221
 10
938740.82252360251732171
 20
325192.41004941379651427
 10
943055.12273907300550491
 20
315905.39706592436414212
 10
937733.45546534366440028
 20
303788.52566649077925831
 10
934926.58831824315711856
 20
303666.67720654746517539
 10
932056.30693563970271498
 20
300913.94987443432910368
 10
931664.16405304416548461
 20
297743.46021362621104345
 10
921588.69684142188634723
 20
286618.00393866241211072
 10
914105.07483284478075802
 20
283632.27233276405604556
 10
909659.91641566320322454
 20
277510.19205405394313857
 10
883719.05566164664924145
 20
261765.31256262527313083
 10
871896.08895148441661149
 20
252415.71112738273222931
 10
862578.80621423909906298
 20
235631.8839195481268689
 10
854630.73664218909107149
 20
228810.02157111201086082
 10
819074.86643148656003177
 20
215391.40943394487840123
 10
811979.59608984726946801
 20
214059.56362821042421274
 10
785960.81143000815063715
 20
201871.05692519937292673
 10
782738.87833551364019513
 20
196343.77258895497652702
 10
776255.04170934797730297
 20
197022.27842958297696896
 10
767590.79027031711302698
 20
192596.47907092989771627
 10
745567.17074639955535531
 20
161793.83984778390731663
 10
750478.08270133775658906
 20
159997.80015881682629697
 10
751861.49813896580599248
 20
160752.01345252071041614
 10
750246.12259349273517728
 20
162270.06817758220131509
 10
751674.70228919351939112
 20
162306.29917615361046046
 10
758612.14237879135180265
 20
157072.09450192053918727
 10
761360.02248020109254867
 20
156884.58190920948982239
 10
759814.00554998661391437
 20
150814.17501391001860611
 10
754532.56272170762531459
 20
148652.82038864307105541
 10
748884.37913338944781572
 20
139361.39943348040105775
 10
744169.48266722576227039
 20
135909.35644035128643736
 10
741487.48601922113448381
 20
135251.86601904095732607
 10
739180.73474694043397903
 20
138239.715951904974645
 10
743213.60744487796910107
 20
139178.44030542846303433
 10
745261.16999985196162015
 20
138021.77595944824861363
 10
750490.06322604976594448
 20
145181.10263729930738918
 10
739450.34186704468447715
 20
141818.75079530919902027
 10
736635.77981879585422575
 20
138877.42038644343847409
 10
733970.24578132212627679
 20
131438.12381953513249755
 10
721867.04131369316019118
 20
103161.89445660004275851
 10
710679.34628541534766555
 20
89368.61330604154500179
 10
706465.84149166836868972
 20
78570.40592736199323554
 10
700253.53204634448047727
 20
72727.78490850461821537
 10
681114.41546066582668573
 20
35495.68497263622703031
 10
680381.35999266267754138
 20
29673.82845033002013224
 10
671983.39911484718322754
 20
12360.66112044724286534
 10
673456.87881058198399842
 20
-1865.76115284032016461
 10
675766.47614202403929085
 20
-9074.60960021714163304
 10
684555.0028307317988947
 20
-24015.56962656858013361
 10
682396.10017677361611277
 20
-25949.33314185898052529
 10
686035.9638887302717194
 20
-35447.39254710219393019
 10
695040.29980339563917369
 20
-48954.98650034679303644
 10
703510.49641151842661202
 20
-55866.40366893809550675
 10
720121.58723341219592839
 20
-60170.78651087682374055
 10
723128.30096795235294849
 20
-62977.11725095810834318
 10
721950.03612376342061907
 20
-63920.41335461281414609
 10
727161.00923119066283107
 20
-66345.90253804670646787
 10
728042.86165992729365826
 20
-69401.40958448396122549
 10
723193.40823227900546044
 20
-71891.47776546777458861
 10
720808.57252006628550589
 20
-76335.9453859554923838
 10
715655.84510602662339807
 20
-79650.77519119826320093
 10
715743.24831076140981168
 20
-83001.94188465308980085
 10
705153.01314172928687185
 20
-86111.78236778442806099
 10
703023.64171883265953511
 20
-94347.95649559921002947
 10
694272.70126218046061695
 20
-96537.98769144336984027
 10
681496.16929504787549376
 20
-104050.20520899507391732
 10
676274.74050647229887545
 20
-110797.97978963222703896
 10
675112.80744409281760454
 20
-116379.51113585435086861
 10
671084.0419970890507102
 20
-117250.71911725010431837
 10
670060.27189964358694851
 20
-119947.68899710009281989
 10
666936.75815757841337472
 20
-120025.33276168347219937
 10
668656.80686127685476094
 20
-134570.15518688567681238
 10
661149.6309040377382189
 20
-137156.82734409012482502
 10
658560.23081149451900274
 20
-140416.21519206528319046
 10
657106.68608573242090642
 20
-145727.77354329175432213
 10
657410.40180618746671826
 20
-159888.69908221170771867
 10
652923.42868854326661676
 20
-163948.45386892734677531
 10
649344.42707751190755516
 20
-176589.42312514441437088
 10
649769.81380209920462221
 20
-182125.92416821597726084
 10
647129.14903273712843657
 20
-179347.59877450205385685
 10
645437.0917099101934582
 20
-185382.59645902042393573
 10
641818.8723581595113501
 20
-188753.46116789657389745
 10
646558.58964698924683034
 20
-196842.00688327086390927
 10
651658.38574506272561848
 20
-199304.40718346071662381
 10
655781.93404734344221652
 20
-198785.9421074568235781
 10
656227.33713772508781403
 20
-201378.44040358581696637
 10
654371.52728944818954915
 20
-203329.39114527063793503
 10
637323.87280680064577609
 20
-209980.67281288307276554
 10
632869.29711945459712297
 20
-208028.80541386644472368
 10
622718.92324931279290468
 20
-208299.52530382041004486
 10
620049.12698302965145558
 20
-210943.82112829573452473
 10
621532.42833168106153607
 20
-213839.8424408022838179
 10
609020.80346780642867088
 20
-209507.88509374880231917
 10
607517.89383481815457344
 20
-212026.69314024233608507
 10
601988.94465143966954201
 20
-211947.03062018449418247
 10
589594.64656960952561349
 20
-221751.10164438813808374
 10
587715.61387066857423633
 20
-227967.8132302507001441
 10
586071.31714894261676818
 20
-227479.24448419190593995
 10
575247.27439263474661857
 20
-234063.90835195922409184
 10
561365.32958011783193797
 20
-254438.61834267541416921
 10
558551.46423983876593411
 20
-269191.99422902631340548
 10
554667.70304827066138387
 20
-279383.40920284076128155
 10
555521.87027283781208098
 20
-284510.39326542691560462
 10
547910.61138092377223074
 20
-289548.36050711263669655
 10
541455.40885550202801824
 20
-303931.47309663984924555
 10
536761.72100971336476505
 20
-308573.86401324201142415
 10
529873.44942777557298541
 20
-308922.86945756425848231
 10
522296.6438379559549503
 20
-301251.39396472135558724
 10
515066.40836537251016125
 20
-298714.86818352446425706
 10
508823.76772394648287445
 20
-301378.03610269376076758
 10
504414.52306476037483662
 20
-300115.97138861002167687
 10
496007.90294548077508807
 20
-302688.41442391491727903
 10
492941.06356680346652865
 20
-312107.68255554948700592
 10
487201.13477286673150957
 20
-317168.33029566740151495
 10
480765.44822102540638298
 20
-318158.54853741056285799
 10
474801.15916297526564449
 20
-314754.94304102374007925
 10
472446.43285657290834934
 20
-316409.19554684933973476
 10
466263.12272265338106081
 20
-311167.02662770182359964
 10
459748.5781453515519388
 20
-312991.65366755530703813
 10
447130.98165355098899454
 20
-312628.86221019137883559
 10
429138.15336664067581296
 20
-313717.63537807675311342
 10
421758.72066494880709797
 20
-319584.33543314522830769
 10
416169.5806336616515182
 20
-319793.5996746473829262
 10
412604.50052707362920046
 20
-317188.49419269035570323
 10
409622.16525896033272147
 20
-318297.64216388342902064
 10
404878.48591956624295563
 20
-315164.24116776353912428
 10
393336.14590530068380758
 20
-317757.57192409655544907
 10
389167.7323123924434185
 20
-316645.59323132265126333
 10
383607.41296038933796808
 20
-315098.01078591181430966
 10
372788.80336817569332197
 20
-318378.67079790448769927
 10
364128.80298331432277337
 20
-316393.50583077262854204
 10
359455.08594623580574989
 20
-319067.82923911226680502
 10
349275.91621781676076353
 20
-320974.15332225081510842
 10
331756.75464580935658887
 20
-320839.08378551300847903
 10
322996.488193511555437
 20
-336648.05917185632279143
 10
317385.53252892033196986
 20
-337623.97131526726298034
 10
315123.56621626520063728
 20
-342517.02700530894799158
 10
312080.47998411126900464
 20
-344678.35495030588936061
 10
305616.95893406262621284
 20
-347035.99984387087170035
 10
289440.39054292353102937
 20
-346088.1164629640406929
 10
281418.05061611370183527
 20
-351848.64238950156141073
 10
275308.13964582746848464
 20
-352587.67137675196863711
 10
265457.08865156659157947
 20
-356761.74248075758805498
 10
260858.86154938820982352
 20
-363511.42959402123233303
 10
258677.98241145958309062
 20
-370335.54374926059972495
 10
255422.27385682187741622
 20
-372619.91532376600662246
 10
251528.50024231569841504
 20
-387874.81968651193892583
  0
HATCH
  5
b4
330
6d
100
AcDbEntity
  8
Mapa mundo
420
14736586
440
33554586
100
AcDbHatch
 10
0.0
 20
0.0
210
0.0
220
0.0
  2
SOLID
 70
     1
 71
     0
 91
     1
 92
     2
 72
     0
 73
     1
 93
    13
 10
-968014.68527135532349348
 20
-1271724.15969143295660615
 10
-964398.2103947140276432
 20
-1273333.30733191920444369
 10
-962919.90229906875174493
 20
-1276352.88351015723310411
 10
-974428.98794694477692246
 20
-1294771.25251335790380836
 10
-977942.35400913830380887
 20
-1293256.52350876783020794
 10
-981316.94232308701612055
 20
-1288735.005393992876634
 10
-988578.01778440689668059
 20
-1287126.09625786822289228
 10
-991702.71058414096478373
 20
-1284383.14966877712868154
 10
-992058.64148885221220553
 20
-1280392.6861989835742861
 10
-989297.04324688296765089
 20
-1279356.14045619126409292
 10
-981087.49466091755311936
 20
-1281410.8393874280154705
 10
-973824.20963876007590443
 20
-1274439.42141146026551723
 10
-968014.68527135532349348
 20
-1271724.15969143295660615
 97
     0
 75
     0
 76
     1
 98
     0
  0
HATCH
  5
b5
330
6d
100
AcDbEntity
  8
Mapa mundo
420
14736586
440
33554586
100
AcDbHatch
 10
0.0
 20
0.0
210
0.0
220
0.0
  2
SOLID
 70
     1
 71
     0
 91
     1
 92
     2
 72
     0
 73
     1
 93
    23
 10
-597402.86153994547203183
 20
-1253185.24464349844492972
 10
-595871.00989415787626058
 20
-1245575.61150202061980963
 10
-589137.85301849746610969
 20
-1231316.65371191175654531
 10
-578010.32027568074408919
 20
-1214876.74123385082930326
 10
-573749.13708148628938943
 20
-1200674.77474480774253607
 10
-567252.32012922468129545
 20
-1197344.6266365428455174
 10
-560342.43942439078819007
 20
-1198269.51139290351420641
 10
-557650.22313559334725142
 20
-1201598.92864172672852874
 10
-556661.71273781580384821
 20
-1210425.03896181262098253
 10
-557851.07145627064164728
 20
-1219844.90118318772874773
 10
-560972.01199354405980557
 20
-1227781.3098686879966408
 10
-560014.93212868296541274
 20
-1235853.43565782788209617
 10
-569806.88666576787363738
 20
-1253510.25317051447927952
 10
-595604.95223158225417137
 20
-1260418.08399522444233298
 10
-606995.72450067207682878
 20
-1271321.72353489883244038
 10
-611218.75423718593083322
 20
-1273020.42791392258368433
 10
-619529.51717086031567305
 20
-1270305.71254472178407013
 10
-627267.42911041341722012
 20
-1269901.46350144548341632
 10
-626081.07350594154559076
 20
-1266469.96390838385559618
 10
-620090.28853540599811822
 20
-1267005.51272758957929909
 10
-610544.67532848508562893
 20
-1263710.72451479593291879
 10
-603308.71561580244451761
 20
-1259458.05773208593018353
 10
-597402.86153994547203183
 20
-1253185.24464349844492972
 97
     0
 75
     0
 76
     1
 98
     0
  0
HATCH
  5
b6
330
6d
100
AcDbEntity
  8
Mapa mundo
420
14736586
440
33554586
100
AcDbHatch
 10
0.0
 20
0.0
210
0.0
220
0.0
  2
SOLID
 70
     1
 71
     0
 91
     1
 92
     2
 72
     0
 73
     1
 93
     6
 10
-520608.69531169906258583
 20
-1139960.67334358603693545
 10
-519845.97366213623899966
 20
-1142038.57294822530820966
 10
-521341.55911631922936067
 20
-1144597.47840279177762568
 10
-526206.98475102160591632
 20
-1145850.35826908121816814
 10
-522676.39279060158878565
 20
-1139326.60123911942355335
 10
-520608.69531169906258583
 20
-1139960.67334358603693545
 97
     0
 75
     0
 76
     1
 98
     0
  0
HATCH
  5
b7
330
6d
100
AcDbEntity
  8
Mapa mundo
420
14736586
440
33554586
100
AcDbHatch
 10
0.0
 20
0.0
210
0.0
220
0.0
  2
SOLID
 70
     1
 71
     0
 91
     1
 92
     2
 72
     0
 73
     1
 93
    17
 10
-520475.27385730034438893
 20
-1144940.62542416853830218
 10
-518745.43517218925990164
 20
-1144643.65130964503623545
 10
-514279.57673205941682681
 20
-1148673.75271597411483526
 10
-518579.74191933608381078
 20
-1155327.72430529608391225
 10
-518222.09534886141773313
 20
-1162179.08986414363607764
 10
-521601.37507520319195464
 20
-1171660.4613544789608568
 10
-534206.73264367470983416
 20
-1178525.21107932482846081
 10
-544243.79836469574365765
 20
-1180049.2209416120313108
 10
-551031.06555381242651492
 20
-1188092.68551640096120536
 10
-559960.51038770738523453
 20
-1184844.47033997951075435
 10
-560715.06324673665221781
 20
-1182142.66231295675970614
 10
-557272.03312402172014117
 20
-1178665.34384312503971159
 10
-555790.31793718971312046
 20
-1169953.19711595750413835
 10
-552251.73419356299564242
 20
-1164812.16119465534575284
 10
-536056.64069865026976913
 20
-1156799.85300299106165767
 10
-526281.54310624056961387
 20
-1155994.70840783859603107
 10
-520475.27385730034438893
 20
-1144940.62542416853830218
 97
     0
 75
     0
 76
     1
 98
     0
  0
HATCH
  5
b8
330
6d
100
AcDbEntity
  8
Mapa mundo
420
14736586
440
33554586
100
AcDbHatch
 10
0.0
 20
0.0
210
0.0
220
0.0
  2
SOLID
 70
     1
 71
     0
 91
     1
 92
     2
 72
     0
 73
     1
 93
    22
 10
-714832.32944268139544874
 20
-1269552.44019771437160671
 10
-712207.1923987113405019
 20
-1272000.26381597272120416
 10
-713844.21113112720195204
 20
-1277734.70130104920826852
 10
-712704.52604884479660541
 20
-1280357.15460646967403591
 10
-715699.19458602403756231
 20
-1284065.42642177105881274
 10
-714653.75925393495708704
 20
-1289441.55049677984789014
 10
-722501.54457040934357792
 20
-1295792.37523224717006087
 10
-731251.99881067825481296
 20
-1298129.80973376287147403
 10
-735256.1341563886962831
 20
-1301379.20398883684538305
 10
-745733.01945688598789275
 20
-1297498.75921036233194172
 10
-755105.2032639670651406
 20
-1287871.22996175638400018
 10
-758044.45036183996126056
 20
-1279013.69225047621876001
 10
-757549.02630371204577386
 20
-1272078.55667473189532757
 10
-745768.47796366072725505
 20
-1261878.28741290350444615
 10
-744959.05401953868567944
 20
-1252375.72959352703765035
 10
-720763.69035676913335919
 20
-1257574.96848011622205377
 10
-718381.44312752736732364
 20
-1256968.99189515202306211
 10
-718514.24580211273860186
 20
-1253169.26629612501710653
 10
-715579.40046766761224717
 20
-1252801.03044681251049042
 10
-714827.39855563209857792
 20
-1255364.87126491754315794
 10
-716575.29754634876735508
 20
-1260033.03293798863887787
 10
-714832.32944268139544874
 20
-1269552.44019771437160671
 97
     0
 75
     0
 76
     1
 98
     0
  0
HATCH
  5
b9
330
6d
100
AcDbEntity
  8
Mapa mundo
420
14736586
440
33554586
100
AcDbHatch
 10
0.0
 20
0.0
210
0.0
220
0.0
  2
SOLID
 70
     1
 71
     0
 91
     1
 92
     2
 72
     0
 73
     1
 93
    11
 10
-903038.19663694605696946
 20
-1236929.79147404967807233
 10
-897955.39132788591086864
 20
-1236127.06572181126102805
 10
-893466.87582008971367031
 20
-1237843.97616961086168885
 10
-884410.65831442549824715
 20
-1245169.69574846769683063
 10
-883037.44192365708295256
 20
-1250372.86643819813616574
 10
-892180.6179749253205955
 20
-1257449.52259478089399636
 10
-899460.41738824150525033
 20
-1257693.46161078964360058
 10
-904384.11033466819208115
 20
-1254075.98913510562852025
 10
-907290.09902345750015229
 20
-1248893.79729616339318454
 10
-906228.10221011168323457
 20
-1240735.54699427029117942
 10
-903038.19663694605696946
 20
-1236929.79147404967807233
 97
     0
 75
     0
 76
     1
 98
     0
  0
HATCH
  5
ba
330
6d
100
AcDbEntity
  8
Mapa mundo
420
14736586
440
33554586
100
AcDbHatch
 10
0.0
 20
0.0
210
0.0
220
0.0
  2
SOLID
 70
     1
 71
     0
 91
     1
 92
     2
 72
     0
 73
     1
 93
    27
 10
-783707.12125617521815002
 20
-1207752.06533318990841508
 10
-794390.84036340878810734
 20
-1213232.48844543425366282
 10
-801303.48540528421290219
 20
-1220672.02221785974688828
 10
-807434.54730649956036359
 20
-1224351.80618742876686156
 10
-808198.99639002117328346
 20
-1231748.17621316201984882
 10
-815022.18168890161905438
 20
-1242842.01547783124260604
 10
-816331.45634398271795362
 20
-1249663.65724307089112699
 10
-828973.5769148285035044
 20
-1262867.09451529360376298
 10
-832282.67663417977746576
 20
-1261926.44508859911002219
 10
-843700.96431550453417003
 20
-1264540.63446725346148014
 10
-846562.24033495143521577
 20
-1255511.28852059645578265
 10
-856319.24040495057124645
 20
-1240196.27712343144230545
 10
-856883.14258343330584466
 20
-1234151.51755682332441211
 10
-862923.92582954175304621
 20
-1223343.66996841365471482
 10
-854873.71455342206172645
 20
-1219882.61528466525487602
 10
-848435.20754991681315005
 20
-1223130.21506595774553716
 10
-837710.75986123213078827
 20
-1220038.63553678011521697
 10
-829865.51454301259946078
 20
-1220554.00456318189390004
 10
-822045.99333906010724604
 20
-1218523.63415264873765409
 10
-812984.2324215128319338
 20
-1211707.82458936772309244
 10
-811564.1254116587806493
 20
-1208534.33656789688393474
 10
-802887.00216052122414112
 20
-1205370.222706742817536
 10
-802119.57498204207513481
 20
-1203336.27082226076163352
 10
-790996.36882641725242138
 20
-1204997.85097292484715581
 10
-784814.71246257156599313
 20
-1203242.929908825783059
 10
-782578.5706650041975081
 20
-1204663.81012012809514999
 10
-783707.12125617521815002
 20
-1207752.06533318990841508
 97
     0
 75
     0
 76
     1
 98
     0
  0
HATCH
  5
bb
330
6d
100
AcDbEntity
  8
Mapa mundo
420
14736586
440
33554586
100
AcDbHatch
 10
0.0
 20
0.0
210
0.0
220
0.0
  2
SOLID
 70
     1
 71
     0
 91
     1
 92
     2
 72
     0
 73
     1
 93
    17
 10
-941634.10309072339441627
 20
-1165194.34345281566493213
 10
-941524.93682237633038312
 20
-1170121.11969095631502569
 10
-939017.07622913387604058
 20
-1175284.78476523468270898
 10
-943852.1842415127903223
 20
-1180860.21642621280625463
 10
-942421.77914652018807828
 20
-1187233.88896291749551892
 10
-944234.91600472328718752
 20
-1192152.91093614953570068
 10
-952954.71718391461763531
 20
-1205096.37296478403732181
 10
-955541.80725609790533781
 20
-1202637.21457226830534637
 10
-956353.60390786058269441
 20
-1194886.48697201255708933
 10
-963397.17392333806492388
 20
-1179933.18788535613566637
 10
-964154.92973366065416485
 20
-1173493.25321421283297241
 10
-966519.34678625233937055
 20
-1170887.91634466126561165
 10
-965705.2272571831708774
 20
-1167522.76118504512123764
 10
-956572.78629449696745723
 20
-1159789.55383840552531183
 10
-949926.66034646064508706
 20
-1162610.0859891683794558
 10
-945837.69348359142895788
 20
-1161386.68480947823263705
 10
-941634.10309072339441627
 20
-1165194.34345281566493213
 97
     0
 75
     0
 76
     1
 98
     0
  0
HATCH
  5
bc
330
6d
100
AcDbEntity
  8
Mapa mundo
420
14736586
440
33554586
100
AcDbHatch
 10
0.0
 20
0.0
210
0.0
220
0.0
  2
SOLID
 70
     1
 71
     0
 91
     1
 92
     2
 72
     0
 73
     1
 93
     6
 10
475151.31746018218109384
 20
-474858.43107010255334899
 10
472458.77027891325997189
 20
-476008.15536508354125544
 10
470464.19012903788825497
 20
-474068.89830581285059452
 10
470016.56670332851354033
 20
-471012.42060376150766388
 10
471662.67559997725766152
 20
-469153.45985209650825709
 10
475151.31746018218109384
 20
-474858.43107010255334899
 97
     0
 75
     0
 76
     1
 98
     0
  0
HATCH
  5
bd
330
6d
100
AcDbEntity
  8
Mapa mundo
420
14736586
440
33554586
100
AcDbHatch
 10
0.0
 20
0.0
210
0.0
220
0.0
  2
SOLID
 70
     1
 71
     0
 91
     1
 92
     2
 72
     0
 73
     1
 93
     5
 10
246794.22215589665574953
 20
-412072.97479130048304796
 10
254954.47848374320892617
 20
-414471.16788761341013014
 10
257289.49962025121203624
 20
-413196.35377361037535593
 10
252287.20328471108223312
 20
-420487.48367055389098823
 10
246794.22215589665574953
 20
-412072.97479130048304796
 97
     0
 75
     0
 76
     1
 98
     0
  0
HATCH
  5
be
330
6d
100
AcDbEntity
  8
Mapa mundo
420
14736586
440
33554586
100
AcDbHatch
 10
0.0
 20
0.0
210
0.0
220
0.0
  2
SOLID
 70
     1
 71
     0
 91
     1
 92
     2
 72
     0
 73
     1
 93
     5
 10
652668.65999382431618869
 20
-187310.63484350417274982
 10
653952.19742699863854796
 20
-196449.30392983960337006
 10
651982.29989786725491285
 20
-194524.32814689030055888
 10
650511.01742156001273543
 20
-184499.00883544518728741
 10
652668.65999382431618869
 20
-187310.63484350417274982
 97
     0
 75
     0
 76
     1
 98
     0
  0
HATCH
  5
bf
330
6d
100
AcDbEntity
  8
Mapa mundo
420
14736586
440
33554586
100
AcDbHatch
 10
0.0
 20
0.0
210
0.0
220
0.0
  2
SOLID
 70
     1
 71
     0
 91
     1
 92
     2
 72
     0
 73
     1
 93
    21
 10
1064552.54602055926807225
 20
103354.73112322157248855
 10
1068408.84165232931263745
 20
97265.83593871255288832
 10
1065150.69268245156854391
 20
99127.24107715155696496
 10
1065943.17066009528934956
 20
91753.26216059135913383
 10
1061562.92359424289315939
 20
90534.72971582078025676
 10
1036797.48038998257834464
 20
100675.66992505063535646
 10
1027343.77312242705374956
 20
98182.66307870429591276
 10
1023867.25654390186537057
 20
98905.26980758366698865
 10
1024844.31674207770265639
 20
104465.35969919884519186
 10
1020265.24572694511152804
 20
107730.57122073724167421
 10
1021421.17770773754455149
 20
111236.14243195517337881
 10
1040968.93257387226913124
 20
115122.91991081510786898
 10
1045182.4015770445112139
 20
118123.12390592631709296
 10
1049218.66141031146980822
 20
112482.44231797276006546
 10
1051015.92529907776042819
 20
117256.89033327612560242
 10
1052116.04417252703569829
 20
114483.99422045609389897
 10
1060332.78731927811168134
 20
109679.1795994025451364
 10
1061463.81764980708248913
 20
106309.20282095040602144
 10
1060023.87514574686065316
 20
105462.90903853562485892
 10
1063874.1554493741132319
 20
105127.9111042547156103
 10
1064552.54602055926807225
 20
103354.73112322157248855
 97
     0
 75
     0
 76
     1
 98
     0
  0
HATCH
  5
c0
330
6d
100
AcDbEntity
  8
Mapa mundo
420
14736586
440
33554586
100
AcDbHatch
 10
0.0
 20
0.0
210
0.0
220
0.0
  2
SOLID
 70
     1
 71
     0
 91
     1
 92
     2
 72
     0
 73
     1
 93
     6
 10
962103.31310120434500277
 20
3628.02336940550003419
 10
960781.14764735917560756
 20
-2205.86788964358902376
 10
958036.12048305559437722
 20
-2305.90306501033046516
 10
956074.63427599065471441
 20
1274.23076458229320451
 10
961420.25934236298780888
 20
5736.50900334838479466
 10
962103.31310120434500277
 20
3628.02336940550003419
 97
     0
 75
     0
 76
     1
 98
     0
  0
HATCH
  5
c1
330
6d
100
AcDbEntity
  8
Mapa mundo
420
14736586
440
33554586
100
AcDbHatch
 10
0.0
 20
0.0
210
0.0
220
0.0
  2
SOLID
 70
     1
 71
     0
 91
     1
 92
     2
 72
     0
 73
     1
 93
    12
 10
841417.45325046894140542
 20
-65401.65415099272649968
 10
844684.65012717281933874
 20
-63508.48438594181789085
 10
846513.12815598002634943
 20
-67640.47990830274648033
 10
841497.06320598744787276
 20
-68587.62580570117279422
 10
835414.21146546152886003
 20
-65635.65698215628799517
 10
831869.38318063318729401
 20
-69937.44333376013673842
 10
829314.82893707521725446
 20
-70698.90281847755250055
 10
828492.89259137527551502
 20
-62960.42020552248868626
 10
831382.74442554032430053
 20
-60820.04545255265111336
 10
832215.81531709176488221
 20
-57695.21618243626289768
 10
837702.74552441365085542
 20
-63904.49105084660550347
 10
841417.45325046894140542
 20
-65401.65415099272649968
 97
     0
 75
     0
 76
     1
 98
     0
  0
HATCH
  5
c2
330
6d
100
AcDbEntity
  8
Mapa mundo
420
14736586
440
33554586
100
AcDbHatch
 10
0.0
 20
0.0
210
0.0
220
0.0
  2
SOLID
 70
     1
 71
     0
 91
     1
 92
     2
 72
     0
 73
     1
 93
    20
 10
843402.65951401169877499
 20
-18614.26451773254666477
 10
845634.61957801703829318
 20
-25367.22848638807408861
 10
843155.49108098458964378
 20
-26643.59876880082447315
 10
842083.90161787963006645
 20
-30636.46575008482614066
 10
836975.51517637982033193
 20
-37453.07536972663365304
 10
829174.94685400021262467
 20
-42733.35563635772268753
 10
828848.30939297657459974
 20
-49335.85213689784723101
 10
826027.54304885969031602
 20
-49685.19008641714754049
 10
823308.38072102412115782
 20
-46530.30300624144001631
 10
820250.71731265436392277
 20
-47353.69124966164235957
 10
817938.88223803346045315
 20
-45712.56710064077924471
 10
816085.454800920560956
 20
-47787.13641683149762684
 10
812004.30429537431336939
 20
-45151.5015546423237538
 10
811365.23782784014474601
 20
-37453.06799630450404948
 10
818379.04937885305844247
 20
-35185.00355956115527079
 10
816909.8030303925042972
 20
-27965.99500377780714189
 10
821943.55346416297834367
 20
-22445.75700988864628016
 10
825982.78286029270384461
 20
-22019.03539574928799993
 10
835849.69640515989158303
 20
-16321.19221924413250235
 10
843402.65951401169877499
 20
-18614.26451773254666477
 97
     0
 75
     0
 76
     1
 98
     0
  0
HATCH
  5
c3
330
6d
100
AcDbEntity
  8
Mapa mundo
420
14736586
440
33554586
100
AcDbHatch
 10
0.0
 20
0.0
210
0.0
220
0.0
  2
SOLID
 70
     1
 71
     0
 91
     1
 92
     2
 72
     0
 73
     1
 93
    52
 10
911112.59325469098985195
 20
39397.90779807856597472
 10
909912.59920703177340329
 20
37876.44816480069130193
 10
908698.38252379279583693
 20
39111.01968597555242013
 10
905023.35666998627129942
 20
37752.19182978947355878
 10
902356.08500902785453945
 20
40759.39926590331742773
 10
901832.01426133734639734
 20
46707.37588463816791773
 10
910727.30316588247660547
 20
53126.84421150608250173
 10
914427.3164826532592997
 20
58176.09402876424428541
 10
918734.16680465557146817
 20
60156.90306628026155522
 10
923267.98937271407339722
 20
67153.41767481646093074
 10
925030.57140302879270166
 20
67368.00989149561792146
 10
937487.49422391480766237
 20
80483.55103707575472072
 10
940092.62447282555513084
 20
80807.05066401133080944
 10
947203.88370128953829408
 20
86436.59347713326860685
 10
959113.62344470876269042
 20
90386.71724364355031867
 10
967543.80510991404298693
 20
95163.99682334807584994
 10
970718.66159798949956894
 20
94024.29938819726521615
 10
962914.95517506508622319
 20
87775.60270217861398123
 10
961255.60568841570056975
 20
88103.00313154117611703
 10
961525.41792403918225318
 20
84479.95243731123628095
 10
970974.13226680888328701
 20
87025.10144306205620524
 10
969843.83909266220871359
 20
82502.39098966542223934
 10
964936.97562346048653126
 20
79326.92293569973844569
 10
966423.21098579140380025
 20
74637.84295852690411266
 10
968948.26461801468394697
 20
72734.97204876340401825
 10
974494.55952662008348852
 20
71247.64443631991161965
 10
980394.69709916308056563
 20
72007.84064595159725286
 10
985225.92162759229540825
 20
76561.8245656649232842
 10
996038.55289223557338119
 20
74046.22684395873511676
 10
995588.42764483927749097
 20
63785.08532963556353934
 10
991638.56052329787053168
 20
59137.66259623137739254
 10
992449.52625817619264126
 20
55701.88983575200109044
 10
986293.85961063392460346
 20
47186.56921971970587038
 10
984264.91662639053538442
 20
41477.02089004734443733
 10
984259.59680605167523026
 20
35171.17620442228508182
 10
982971.62666040763724595
 20
35849.49372580601630034
 10
979804.31840840191580355
 20
27781.33146756176574854
 10
967212.25588882400188595
 20
15908.88488044209407235
 10
957077.12507166573777795
 20
25298.67158095277409302
 10
945536.50372455071192235
 20
23913.87771428150881547
 10
942011.37520225904881954
 20
24875.82789152772238594
 10
936513.32458763150498271
 20
33948.05403341061173705
 10
937542.22855087998323143
 20
38655.86659801831410732
 10
936276.37527359358500689
 20
40847.3170990291328053
 10
930462.75322255550418049
 20
44126.3668918351031607
 10
928107.36195972817949951
 20
44525.42221332484768936
 10
921122.61426545295398682
 20
39929.02108768167090602
 10
917686.20465815777424723
 20
32887.34920241767395055
 10
915346.31818116479553282
 20
32313.71144556490980904
 10
912829.360189872328192
 20
36040.22107391202735016
 10
913696.18034546170383692
 20
37310.98942377854837105
 10
911112.59325469098985195
 20
39397.90779807856597472
 97
     0
 75
     0
 76
     1
 98
     0
  0
HATCH
  5
c4
330
6d
100
AcDbEntity
  8
Mapa mundo
420
14736586
440
33554586
100
AcDbHatch
 10
0.0
 20
0.0
210
0.0
220
0.0
  2
SOLID
 70
     1
 71
     0
 91
     1
 92
     2
 72
     0
 73
     1
 93
     5
 10
832717.86083916283678263
 20
357838.64594092458719388
 10
829630.21406964445486665
 20
358592.84812243533087894
 10
830854.65292709076311439
 20
362629.06207645626273006
 10
834010.77619066089391708
 20
358291.87301730591570958
 10
832717.86083916283678263
 20
357838.64594092458719388
 97
     0
 75
     0
 76
     1
 98
     0
  0
HATCH
  5
c5
330
6d
100
AcDbEntity
  8
Mapa mundo
420
14736586
440
33554586
100
AcDbHatch
 10
0.0
 20
0.0
210
0.0
220
0.0
  2
SOLID
 70
     1
 71
     0
 91
     1
 92
     2
 72
     0
 73
     1
 93
   667
 10
251528.50024231569841504
 20
-387874.81968651193892583
 10
249762.64386268929229118
 20
-387926.61068214412080124
 10
248952.75967246640357189
 20
-385500.82726370572345331
 10
243605.38156664144480601
 20
-383807.45473512046737596
 10
242181.11297575183562003
 20
-387286.86306322430027649
 10
242779.12396551817073487
 20
-396821.08821961819194257
 10
227337.92810530055430718
 20
-403494.55529906635638326
 10
225633.13783191633410752
 20
-400171.66452381131239235
 10
220171.04348497252794914
 20
-396939.21131064393557608
 10
218049.47779758021351881
 20
-397787.61227657354902476
 10
210508.04114120095619
 20
-395134.19117480679415166
 10
199345.67855561565374956
 20
-384451.77402265043929219
 10
193391.9390806031296961
 20
-385371.93266848003258929
 10
188572.87055156065616757
 20
-384085.79875697212992236
 10
182247.64134173476486467
 20
-374095.49676099204225466
 10
177276.35934207774698734
 20
-371577.90520356548950076
 10
174905.35223236196907237
 20
-364252.89361666585318744
 10
163270.02569476375356317
 20
-346337.33598816464655101
 10
165110.99581705484888516
 20
-345949.87650632375152782
 10
168015.34684556763386354
 20
-348504.98812005331274122
 10
170438.47490080076386221
 20
-353020.42396421666489914
 10
175018.75759098920389079
 20
-348392.78782512614270672
 10
170992.80445042182691395
 20
-348771.75165213010041043
 10
169906.45926332968520001
 20
-341587.28353916702326387
 10
165504.56823216046905145
 20
-337607.11964926798827946
 10
155479.69891851866850629
 20
-335070.33702213980723172
 10
151425.37148694618372247
 20
-324440.99878391082165763
 10
153443.41705319262109697
 20
-320592.23960602062288672
 10
159541.63870632398175076
 20
-317444.62484457681421191
 10
160017.61287055010325275
 20
-307582.42443043534876779
 10
162986.08498474859516136
 20
-304919.22761069721309468
 10
169479.45008148427587003
 20
-305278.56650047254515812
 10
172693.35334242586395703
 20
-301962.40309287799755111
 10
168739.11302290958701633
 20
-304120.21922490035649389
 10
164799.09225752315251157
 20
-302805.99486841895850375
 10
159897.10007922179647721
 20
-305257.35278156993445009
 10
159395.5569573120737914
 20
-314682.49951428797794506
 10
155730.29843285502283834
 20
-316051.29836383071960881
 10
145485.15140881965635344
 20
-299413.73601815581787378
 10
123409.14715649091522209
 20
-284030.67275324807269499
 10
110154.70607981973444112
 20
-276978.02994888328248635
 10
107888.22918830461276229
 20
-271623.28311990614747629
 10
113532.43992623963276856
 20
-262650.43482798320474103
 10
106662.60076292441226542
 20
-269552.1251428026589565
 10
103874.97969886614009738
 20
-269591.56636462546885014
 10
106987.74595267897529993
 20
-276377.47171935980441049
 10
91596.94154832961794455
 20
-270797.92233267845585942
 10
89273.12816416249552276
 20
-271877.67574765009339899
 10
92992.62544758041622117
 20
-272754.23312509630341083
 10
71486.58528798086626921
 20
-273510.98260923352790996
 10
66751.71847171512490604
 20
-275952.53432161483215168
 10
63810.37795992627798114
 20
-274543.70138066593790427
 10
58755.26264985241868999
 20
-243197.44019915215903893
 10
54670.29161557997576892
 20
-237368.67989152230438776
 10
53309.89667592046316713
 20
-233067.43085146427620202
 10
54640.81485539470304502
 20
-229258.78530855808639899
 10
58386.97510123562824447
 20
-225292.69110854156315327
 10
60746.57728871567087481
 20
-214925.09248391070286743
 10
70331.38520542622427456
 20
-205771.38092467040405609
 10
72718.70005034503992647
 20
-201439.77495652317884378
 10
75595.72792696660326328
 20
-187399.63304947680444457
 10
85498.12893019884359092
 20
-185104.96294532902538776
 10
88650.76363315671915188
 20
-180275.40246753109386191
 10
97388.64560750043892767
 20
-182112.07566538607352413
 10
103586.06663126060448121
 20
-162515.6502015158184804
 10
96941.02780077839270234
 20
-162459.26781909904093482
 10
91550.86505020008189604
 20
-165436.30335084325633943
 10
89019.43019264233589638
 20
-164326.33994290634291247
 10
84526.3430755059234798
 20
-154554.89062614145223051
 10
71253.40433691293583252
 20
-137753.25659845536574721
 10
67559.78314050064363983
 20
-135366.99398190816282295
 10
69635.35939520207466558
 20
-132787.77664749338873662
 10
68700.90968208285630681
 20
-130053.55325947598612402
 10
71074.2905214459169656
 20
-123137.02844673725485336
 10
75131.83118710806593299
 20
-116278.57936346688074991
 10
73181.15387368929805234
 20
-113141.24241351008822676
 10
73845.45078683992323931
 20
-105682.50794581735681277
 10
78848.84251596576359589
 20
-99762.65665885237103794
 10
85292.90141049477097113
 20
-93794.84381020956789143
 10
93490.537779798018164
 20
-89720.52906823318335228
 10
92560.58412440508254804
 20
-84240.38047250098315999
 10
100452.54930891511321533
 20
-72002.48209260233852547
 10
99304.3749766592081869
 20
-66152.73106940893922001
 10
94649.97385915277118329
 20
-61504.92737776411377126
 10
90108.89508552942425013
 20
-61191.08882583037484437
 10
87011.97887625829025637
 20
-62887.1265351227557403
 10
83515.02781613254046533
 20
-61149.20005855929048266
 10
84479.67951307924522553
 20
-56915.8563519827221171
 10
83398.39287497846817132
 20
-54804.4216652622926631
 10
75575.2357528544816887
 20
-50368.14494598747114651
 10
76135.93623836287588347
 20
-43775.69304386566363974
 10
69523.8096341815253254
 20
-35988.09202049321174854
 10
69892.34047994096181355
 20
-21984.41766314960113959
 10
64433.87975163041119231
 20
-20189.83246755770232994
 10
61526.32840871070948197
 20
-15749.43888700086972676
 10
57159.32987256047636038
 20
-12891.0669510727366287
 10
53022.02613943450705847
 20
-8089.3359600972116823
 10
49523.93077230222115759
 20
1152.88291987659113147
 10
67927.07619852227799129
 20
697.62470789948054062
 10
76978.29232679803681094
 20
2412.45788619686481979
 10
81526.75249451493436936
 20
1191.11303322289677453
 10
95378.60463149055431131
 20
3450.59017897322974022
 10
97676.67949209797370713
 20
12385.97625058079029259
 10
97017.03828663892636541
 20
15522.4366839886733942
 10
103146.28861574923212174
 20
22196.58907120058938744
 10
103270.01305177090398502
 20
28419.36509782905704924
 10
107020.13712214236147702
 20
38606.47202434937207727
 10
100391.77815698906488251
 20
48926.92558744658890646
 10
95249.08062149424222298
 20
50651.17808721835899632
 10
92833.76890827479655854
 20
57542.51810195133293746
 10
95100.35619417839916423
 20
62471.93353417114121839
 10
101326.64952643640572205
 20
65826.32339362826314755
 10
105209.97701950889313594
 20
65934.9204707703756867
 10
107039.08367898990400136
 20
68594.19991157030744944
 10
113719.34738141762500163
 20
77268.14504659816157073
 10
108804.81534874856879469
 20
83095.79250073211733252
 10
108256.83387324864452239
 20
86709.62777732845279388
 10
111920.11816451522463467
 20
94816.4989326321228873
 10
108596.14463608049845789
 20
102275.19610777280468028
 10
111550.76076819164154585
 20
109534.00583299773279577
 10
109267.79059354307537433
 20
121755.10247839939256664
 10
109341.39072997072071303
 20
130946.14902815895038657
 10
111039.63908460673701484
 20
132814.09250917460303754
 10
100342.56885099154897034
 20
148939.74567016819491982
 10
101365.73598249480710365
 20
153919.89083552840747871
 10
111686.93519551283679903
 20
155882.9356712200678885
 10
114936.75669289848883636
 20
160870.08606858676648699
 10
115651.99371941764547955
 20
166432.57427922842907719
 10
124558.60043363031581976
 20
178663.84271196566987783
 10
131519.95220423172577284
 20
179130.79624082832015119
 10
138269.95420329956687056
 20
182842.39487419006763957
 10
145018.38967970188241452
 20
191249.91359002626268193
 10
146726.03913366119377315
 20
191284.27763579026213847
 10
146681.41796150029404089
 20
193488.28653371502878144
 10
151503.04196026211138815
 20
195109.20380741084227338
 10
154776.79768930535647087
 20
204733.68069472015486099
 10
160740.1601480059325695
 20
213007.10182661656290293
 10
155071.06152991516864859
 20
219322.97271712237852626
 10
147182.78922528121620417
 20
223087.63781113977893256
 10
139252.48724929854506627
 20
224367.73902489899774082
 10
135786.02583693957421929
 20
221694.47791428613709286
 10
132567.01845552967279218
 20
222280.25648488910519518
 10
129417.57006134980474599
 20
231202.78043038005125709
 10
133575.71346258188714273
 20
245467.51158773113274947
 10
129262.60775798569375183
 20
247107.64123337998171337
 10
129852.80241843653493561
 20
251915.75288166038808413
 10
128342.32864627445815131
 20
255063.60505036561517045
 10
126309.10559839120833203
 20
255879.84312689179205336
 10
125245.63800495455507189
 20
253486.75214019359555095
 10
116542.96344583069731016
 20
252216.25760394957615063
 10
114049.28156542965734843
 20
252922.21533468255074695
 10
110950.40727885191154201
 20
257555.28597549031837843
 10
108412.32234139100182801
 20
257966.76655852407566272
 10
107940.17408172352588736
 20
254646.82527625715010799
 10
105991.7618802760989638
 20
253394.59821335357264616
 10
98513.16866093067801557
 20
253332.93985849630553275
 10
95305.40933680080343038
 20
255470.86952808359637856
 10
89713.01010472109192051
 20
253067.13810200162697583
 10
80662.80598125525284559
 20
257815.28628416688297875
 10
77357.69616166666673962
 20
255332.98793416298576631
 10
76669.93214760700357147
 20
247043.1597858264867682
 10
73200.83112915800302289
 20
244178.26410517562180758
 10
61559.72815685931709595
 20
241663.06243255257140845
 10
57372.86787636143708369
 20
237618.69585456766071729
 10
55116.95511928685300518
 20
242775.61672928836196661
 10
51249.10223142697213916
 20
244130.13191138292313553
 10
48712.66288143964629853
 20
240453.07006133973482065
 10
43784.79345058652688749
 20
239697.90523699729237705
 10
42383.13144852589903167
 20
241488.90719628287479281
 10
43645.06644852639146848
 20
244989.29191699737566523
 10
39178.18140835077792872
 20
245155.61790474914596416
 10
34111.82223878460354172
 20
247833.05656011827522889
 10
19638.97452060336217983
 20
243189.4533590454084333
 10
18833.01256984424617258
 20
249397.74271111970301718
 10
17201.11303333661999204
 20
248762.24174091097665951
 10
15637.61638624002080178
 20
244181.1519001979904715
 10
11579.54659587697642564
 20
243808.92002702940953895
 10
6868.35707081882992497
 20
238506.24017463729251176
 10
-3835.32215913913523764
 20
238129.22983665860374458
 10
-3648.43061637147820875
 20
242265.06953147653257474
 10
-7246.91308439978274691
 20
244305.43125992597197182
 10
-8057.4765271259493602
 20
248358.5828652594354935
 10
-4063.80563474522250544
 20
255102.32324366242391989
 10
2077.61095071723912042
 20
260152.53842364568845369
 10
3148.44474151182157584
 20
263487.81960246729431674
 10
-372.72765343394542015
 20
267040.13558928907150403
 10
-5868.39235721269596979
 20
266669.46748654113616794
 10
-5888.56863397374763736
 20
273250.35693254723446444
 10
-7376.88899791339645162
 20
276009.84190570825012401
 10
-17671.90252170559688238
 20
270259.37938370724441484
 10
-40877.10382117712288164
 20
264727.24395916162757203
 10
-44549.16606705646699993
 20
259060.91078376688528806
 10
-51201.44323377899127081
 20
255680.71509821282234043
 10
-54935.26208720948488917
 20
250899.50965462694875896
 10
-60714.61709562937903684
 20
246860.52370600117137656
 10
-62088.21572208148427308
 20
247360.51300291621009819
 10
-63046.78138458552712109
 20
272450.33888275182107463
 10
-57332.89596870125387795
 20
273671.77759540610713884
 10
-57085.40482327908830484
 20
275568.18554402387235314
 10
-58997.00289504547981778
 20
277052.9360689491732046
 10
-55558.45542622162611224
 20
281097.56544393993681297
 10
-40572.96192555670131696
 20
292598.03413672873284668
 10
-40650.45448477487661876
 20
297751.28128869814099744
 10
-44668.41900938414619304
 20
292297.45487638399936259
 10
-53787.93739161722623976
 20
288035.6772530046873726
 10
-60600.38832149125664728
 20
287684.28206288273213431
 10
-59379.72179092253645649
 20
293052.85550031793536618
 10
-57239.83340687029703986
 20
292131.05497894569998607
 10
-57487.50208973243570654
 20
297123.34107549849431962
 10
-52644.65692163733183406
 20
297207.3418546742759645
 10
-42960.72572163066070061
 20
308097.97644929040689021
 10
-46189.28324086892826017
 20
307928.7326336134574376
 10
-51411.74186373002157779
 20
304362.6238372239167802
 10
-58489.44976764036982786
 20
304029.50264452601550147
 10
-60448.60430147295846837
 20
305266.63473775738384575
 10
-62096.20142761476745363
 20
309828.50921766040846705
 10
-66573.4934335235884646
 20
311388.62263068906031549
 10
-61500.4902036981729907
 20
314370.71373069658875465
 10
-59832.36707653684425168
 20
313072.42292028368683532
 10
-60958.31910415333550191
 20
311337.31226802978198975
 10
-57033.12226516332157189
 20
310476.91708989272592589
 10
-55872.21884082603355637
 20
315010.41198730299947783
 10
-56644.63333296811470063
 20
322434.52904051478253677
 10
-52716.02210715063120006
 20
326313.71292510826606303
 10
-48993.96133144036866724
 20
335584.79566224460722879
 10
-53463.3547316162075731
 20
330301.86696525994921103
 10
-57896.34539255486015463
 20
334988.98775086522800848
 10
-60356.94705136021366343
 20
327795.32781017333036289
 10
-63193.23332846567791421
 20
328706.59044958394952118
 10
-65917.10945062075916212
 20
326616.31610606529284269
 10
-64768.3153502737332019
 20
325190.59886395442299545
 10
-68695.07325689474237151
 20
323614.49909494782332331
 10
-69621.40402411969262175
 20
320518.09221522964071482
 10
-72171.56442384245747235
 20
318265.73477087705396116
 10
-73373.91564642390585504
 20
319657.07823831244604662
 10
-73907.49766867834841833
 20
323550.4198889181134291
 10
-76965.31159224147268105
 20
325586.26069604407530278
 10
-73490.89116469376313034
 20
337944.2423230487620458
 10
-62601.42572396242030663
 20
347235.46432152087800205
 10
-61697.26553777966910275
 20
351540.00648360000923276
 10
-63385.51201954366115388
 20
352482.05303545785136521
 10
-63748.31648443775338819
 20
349944.77979141671676189
 10
-66916.22925394878257066
 20
347587.89306906430283561
 10
-74926.10881742014316842
 20
347629.53459197870688513
 10
-76583.82216247587348334
 20
343755.33297036617295817
 10
-79171.356585475281463
 20
343540.36685781041160226
 10
-81943.08515475458989386
 20
349712.09194133745040745
 10
-79074.82586425627232529
 20
351957.10583617427619174
 10
-82392.88983524331706576
 20
354681.44415563280927017
 10
-81764.74023401395243127
 20
361351.41961277869995683
 10
-86730.28536443850316573
 20
364943.31515088945161551
 10
-86755.5732188605616102
 20
362416.3166398317553103
 10
-89057.93761469481978565
 20
363960.40066592703806236
 10
-93113.90289427015522961
 20
358805.77606792788719758
 10
-94605.19242236051650252
 20
362764.11908874753862619
 10
-91126.7781455270742299
 20
372496.4795238230144605
 10
-93397.37926278916711453
 20
376772.59712254122132435
 10
-88266.55780796872568317
 20
383309.96076234057545662
 10
-86021.58893868431914598
 20
381933.95382585161132738
 10
-79290.25852672560722567
 20
386165.60401894390815869
 10
-87481.37433647266880143
 20
385904.11615927837556228
 10
-88207.75682125362800434
 20
387853.12253652035724372
 10
-81666.02747506661398802
 20
392903.11478081438690424
 10
-78632.31362976098898798
 20
391533.6202506857807748
 10
-74720.85868760585435666
 20
392249.10069198766723275
 10
-71350.82037984127236996
 20
396923.89341161795891821
 10
-69268.86889263607736211
 20
395582.18074892822187394
 10
-64936.071235013398109
 20
396475.24197406461462379
 10
-63524.54434766535268864
 20
397542.42461116821505129
 10
-66189.4235299897409277
 20
398114.91255819477373734
 10
-69390.19752431749657262
 20
401822.51337813143618405
 10
-56508.72857702737383079
 20
408167.94708805967820808
 10
-52930.64183429391414393
 20
404942.70985290937824175
 10
-45444.81508655108336825
 20
402772.6309903118526563
 10
-37263.23164876046212157
 20
406144.93588070932310075
 10
-34503.69657586522225756
 20
404909.70436894043814391
 10
-25116.41530905358013115
 20
411767.01107746869092807
 10
-20677.48434762987744762
 20
412927.36805909581016749
 10
-17876.02289246904183528
 20
408778.41823619260685518
 10
-16006.9205821426876355
 20
415111.77648311457596719
 10
-10865.3893146382051782
 20
412909.00298117456259206
 10
-6253.65531836577247304
 20
404824.74052973825018853
 10
-6199.55023431910012732
 20
413432.0210575801320374
 10
-3425.4878792880549554
 20
416278.10406685259658843
 10
-10660.30564254070850438
 20
417506.23227684129960835
 10
-13926.61665604144582176
 20
420152.29124159133061767
 10
-3695.5388543328722335
 20
422607.27653678460046649
 10
-2868.27716886467169388
 20
424686.39161762519506738
 10
-10049.00230174815442297
 20
423106.51743723062099889
 10
-8948.34512172483300674
 20
423932.26623213978018612
 10
-10046.63418330543208867
 20
424693.27547767327632755
 10
-12611.23780674505360366
 20
422581.8724343070643954
 10
-16183.82809518550675421
 20
422426.77519452321575955
 10
-14837.80514796636816754
 20
428133.43249046697746962
 10
-12852.01949777361187444
 20
429245.98149231052957475
 10
-14504.81207682506283163
 20
433046.85412926028948277
 10
-8008.12863517378900724
 20
433967.24641995964339003
 10
3746.92662791324482896
 20
442960.05385462730191648
 10
4719.82776332697903854
 20
441088.99286906054476276
 10
6554.83993183567690721
 20
441443.16884637490147725
 10
5451.71362322530785605
 20
441442.18019285367336124
 10
6553.35241934876012238
 20
442962.21264345379313454
 10
4769.28026258541285642
 20
445411.01162621553521603
 10
5947.44694344406798336
 20
448843.36263349035289139
 10
12242.34257230819275719
 20
449787.76984952948987484
 10
18080.80114577300992096
 20
455190.04304323653923348
 10
20313.06262835236339015
 20
454852.86468335695099086
 10
23098.26363319811935071
 20
449138.32829164736904204
 10
21397.34080128987625358
 20
449824.35682635864941403
 10
20910.56542468648694921
 20
446102.05040157493203878
 10
18109.74866218325769296
 20
444502.53686504910001531
 10
22156.71253537266602507
 20
444297.68841688008978963
 10
21404.637292512878048
 20
447545.80154909106204286
 10
25308.00208938729701913
 20
447559.43812749651260674
 10
25874.27580738775577629
 20
450409.85280588263412938
 10
33849.93763112593296682
 20
454622.9811267030891031
 10
36022.37454979780159192
 20
458273.8787813795497641
 10
37420.70274269263609312
 20
455957.71053569472860545
 10
35203.92138931722001871
 20
451388.37033034872729331
 10
39632.03578150459361495
 20
453764.18051859945990145
 10
41695.19759478663036134
 20
446651.44218822830589488
 10
44055.38530271441413788
 20
449935.35020187444752082
 10
47671.14398169596097432
 20
451479.30922530795214698
 10
61771.50800771106150933
 20
445866.32906173181254417
 10
66937.79307256219908595
 20
436859.75950677058426663
 10
70782.04565150372218341
 20
435013.78705037740292028
 10
69640.16739268862875178
 20
433559.54569628374883905
 10
70732.35489020792010706
 20
432241.681274346599821
 10
72950.34836782075581141
 20
433594.68979033367941156
 10
87973.03727737125882413
 20
432748.28010021342197433
 10
89096.50420219707302749
 20
429855.6835760110989213
 10
87871.03146703922539018
 20
424333.20129231124883518
 10
91445.66828031989280134
 20
432491.70476840797346085
 10
96069.99639230087632313
 20
433591.72581393440486863
 10
115494.53710551100084558
 20
432961.63071254949318245
 10
119900.30783655219420325
 20
435426.61637747148051858
 10
131159.84090247709536925
 20
432127.64698173460783437
 10
134954.35208190805860795
 20
433034.98365523718530312
 10
134412.43238247247063555
 20
435294.50790020922431722
 10
138602.96767460450064391
 20
433796.74316746031399816
 10
146909.06714596136589535
 20
434805.56621158204507083
 10
154258.71830069055431522
 20
438001.06409784592688084
 10
157923.39594549135654233
 20
435806.51215314061846584
 10
166734.82734249558416195
 20
435386.31074807449476793
 10
170370.14778257327270694
 20
437563.11089186632307246
 10
179748.94017319360864349
 20
437807.87210213288199157
 10
179604.8280202905589249
 20
443183.38859317015158013
 10
183130.5364188406674657
 20
443790.13966533332131803
 10
183977.54285919715766795
 20
446206.79592446231981739
 10
187918.85931682217051275
 20
444931.82369524030946195
 10
195846.61565665551461279
 20
436054.96664825646439567
 10
196776.66803603566950187
 20
437661.37183301901677623
 10
198405.71318940058699809
 20
435297.52979524596594274
 10
221342.81951543639297597
 20
435358.36234489642083645
 10
219898.82546543562784791
 20
429893.41487017110921443
 10
224400.03533640620298684
 20
433608.65523077204125002
 10
229004.87502131055225618
 20
433659.97215655620675534
 10
236269.26399597150157206
 20
429538.75401966663775966
 10
246043.88908677303697914
 20
428544.64205258712172508
 10
248917.83264865499222651
 20
426685.48955190152628347
 10
255584.57145163239329122
 20
425839.60384230088675395
 10
258292.39939422305906191
 20
427387.27319573698332533
 10
275217.9094623276614584
 20
421975.97176187875447795
 10
293195.28390264074550942
 20
421145.52485558058833703
 10
295893.69025262398645282
 20
419123.41613306599901989
 10
299783.35367093625245616
 20
421410.61660373193444684
 10
304193.72230773163028061
 20
419492.35783494188217446
 10
305725.32377756451023743
 20
421351.13107978989137337
 10
319531.78154444484971464
 20
422625.4030560472747311
 10
333516.5587673726840876
 20
428551.1439610494999215
 10
336131.87369496910832822
 20
427094.814706438803114
 10
339264.85603680380154401
 20
431580.82564049487700686
 10
348320.19254805432865396
 20
434260.65715007460676134
 10
353081.7328894006786868
 20
432523.28532359882956371
 10
347195.922800536849536
 20
428417.74762722762534395
 10
349266.22372403735062107
 20
426203.64182630326831713
 10
352983.8101818750728853
 20
429543.89205243089236319
 10
355277.58003122743684798
 20
428077.68244407745078206
 10
354228.30951239285059273
 20
431753.87880895048147067
 10
356421.83703165431506932
 20
431176.04283712414326146
 10
356341.33356303564505652
 20
432695.24287176044890657
 10
368196.89370677288388833
 20
437687.74593416217248887
 10
370232.02797908644424751
 20
437650.00696308386977762
 10
370182.78187182091642171
 20
435728.89175109105417505
 10
374427.34714786615222692
 20
433678.17984694766346365
 10
380480.92558489291695878
 20
432643.66379815223626792
 10
380840.66660489066271111
 20
430432.30740275426069275
 10
377441.34934972354676574
 20
431057.20803547883406281
 10
375023.47707407118286937
 20
428314.07117216911865398
 10
378426.41989728814223781
 20
426463.32916304847458377
 10
379452.27586299425456673
 20
428562.18768074893159792
 10
380402.61332546267658472
 20
427304.90724317211424932
 10
385089.95813624671427533
 20
427965.90729147411184385
 10
398873.64699941035360098
 20
425120.07599189545726404
 10
403926.95930030947783962
 20
422110.60443342372309417
 10
407067.14328988594934344
 20
421620.86641317402245477
 10
408835.16956536611542106
 20
423157.27673437254270539
 10
415744.08985596254933625
 20
418450.65944948379183188
 10
413654.2149439508211799
 20
424485.88581084151519462
 10
420613.34382219554390758
 20
429482.96429039986105636
 10
419971.39228089450625703
 20
430968.09751746436813846
 10
434236.15151054540183395
 20
434298.13192098512081429
 10
438764.36915602773660794
 20
431467.87102989864069968
 10
441136.42797634721500799
 20
425265.24781365587841719
 10
443229.88215156260412186
 20
430357.18220357369864359
 10
457937.67486338398884982
 20
426730.69503694825107232
 10
464474.13384698971640319
 20
422563.51538770244223997
 10
474583.58664463693276048
 20
420384.0228150921757333
 10
481667.38804578263079748
 20
422144.39483638701494783
 10
487443.84359438595129177
 20
419504.32510475197341293
 10
500578.75576957734301686
 20
426684.91314182669157162
 10
504141.9407123476266861
 20
424481.13858955109026283
 10
505219.057724391866941
 20
425393.90585264755645767
 10
503394.48114280519075692
 20
426844.52934600808657706
 10
512232.11559065396431834
 20
433372.96831272216513753
 10
513702.52076197398127988
 20
432470.96485322096850723
 10
513852.7410898573580198
 20
427464.73994936980307102
 10
516266.03715928696328774
 20
426508.15592894679866731
 10
518075.40923691156785935
 20
422607.86828509403858334
 10
525749.34218843909911811
 20
423508.108180096372962
 10
528869.35589671961497515
 20
418100.38391075824620202
 10
531616.94466643850319088
 20
418830.15033784636761993
 10
533649.18718167976476252
 20
422622.46359850536100566
 10
544116.68795269157271832
 20
421324.64221756783081219
 10
546645.20078898582141846
 20
419103.59270423202542588
 10
545802.1797233447432518
 20
406947.89811920892680064
 10
541223.47377841419074684
 20
400601.93677199975354597
 10
545936.91529838100541383
 20
395822.466350743023213
 10
551574.81118196318857372
 20
396007.88198320101946592
 10
552493.03874228696804494
 20
402768.56260095397010446
 10
555535.34045702475123107
 20
405309.1093545364565216
 10
557414.25953516992740333
 20
404971.54169453924987465
 10
555775.89768998010549694
 20
400396.7058861322584562
 10
558892.49833897163625807
 20
398116.48730473220348358
 10
563688.66859164286870509
 20
397664.75694116344675422
 10
569460.42321930092293769
 20
394391.30582324473652989
 10
579546.55277257994748652
 20
393112.48526401171693578
 10
586875.34578809479717165
 20
389393.66273199470015243
 10
599625.33817226195242256
 20
391103.5776702897856012
 10
601877.31003281625453383
 20
390543.49166243913350627
 10
603344.8747401675209403
 20
387561.69980044878320768
 10
604065.71833334350958467
 20
383824.63855124998372048
 10
611932.57927964441478252
 20
380601.0018091308302246
 10
619190.23728183913044631
 20
372607.06040286156348884
 10
621807.56521574570797384
 20
374140.92200054903514683
 10
621711.6473266618559137
 20
376799.26057066983776167
 10
630889.5805542126763612
 20
375694.0133104216074571
 10
636406.13598744559567422
 20
380528.86462280678097159
 10
637801.45467543869744986
 20
380177.68139089841861278
 10
638632.31178726104553789
 20
382222.34318164538126439
 10
640197.90307729283813387
 20
381057.62297056411625817
 10
646391.78736749326344579
 20
376638.905632107576821
 10
652333.4594084566924721
 20
378224.55703331483528018
 10
652996.13839150290004909
 20
374400.84480442124186084
 10
656636.78889022243674845
 20
369829.05295375391142443
 10
663542.93765947024803609
 20
366934.83441312960349023
 10
680157.04103164677508175
 20
373195.37299124669516459
 10
686007.45220809814054519
 20
371969.68478366144699976
 10
689507.66210568370297551
 20
367639.7662084634648636
 10
695422.29754118795972317
 20
373717.0096519187791273
 10
698666.56304011482279748
 20
370412.41525823198026046
 10
704975.05258057045284659
 20
371651.38845905789639801
 10
719536.25524471479002386
 20
372489.35039358254289255
 10
721024.91642173053696752
 20
373964.88003064482472837
 10
720320.49044183338992298
 20
377677.56150234636152163
 10
718003.94007721787784249
 20
379107.65556654374813661
 10
719201.40275398641824722
 20
381324.31010144233005121
 10
718163.85683606844395399
 20
382484.72267443448072299
 10
718782.14122675196267664
 20
389714.9232635868829675
 10
724265.68347078876104206
 20
391066.42932798975380138
 10
735435.95666643476579338
 20
388600.64048812189139426
 10
741099.54247807466890663
 20
386017.53699438762851059
 10
743344.59759754862170666
 20
387583.55606457509566098
 10
746209.96048871241509914
 20
386122.0439901715144515
 10
755014.7880886064376682
 20
386069.62768669537035748
 10
760925.67211662512272596
 20
379452.68296597868902609
 10
776573.463448166847229
 20
381424.17442112159915268
 10
776396.2772568070795387
 20
379803.60050457995384932
 10
778367.3198337220819667
 20
379156.73368010960984975
 10
785122.70269332476891577
 20
369636.29947820858797058
 10
784082.18268382374662906
 20
362066.61587361944839358
 10
785907.29514071345329285
 20
362524.51466463785618544
 10
787980.53291207528673112
 20
359675.38060210208641365
 10
784712.20816491940058768
 20
357353.25316687283338979
 10
788690.47336151462513953
 20
351934.81770683702779934
 10
794418.22064599778968841
 20
352010.24466870434116572
 10
798732.36442023096606135
 20
355162.88836898986482993
 10
804065.63796963915228844
 20
357285.80540423712227494
 10
805099.33351185498759151
 20
360924.59022189432289451
 10
807606.4452016664436087
 20
360425.00775537936715409
 10
809149.25811031134799123
 20
361977.64296910492703319
 10
809692.79167155083268881
 20
361018.83517911669332534
 10
828169.66536183003336191
 20
356799.86326924571767449
 10
832088.90055677376221865
 20
349410.23092696152161807
 10
836110.07268935116007924
 20
347619.67648685106541961
 10
840424.20940395398065448
 20
349362.85416828421875834
 10
845711.18739617126993835
 20
356589.113456615654286
 10
857116.85973509005270898
 20
359393.53325545793632045
 10
869702.99405200395267457
 20
355888.11438326770439744
 10
872048.00344948202837259
 20
352597.49199598445557058
 10
878132.38982595398556441
 20
350392.71466032083844766
 10
880503.9013714863685891
 20
353698.86920937290415168
 10
890108.22537113749422133
 20
353430.11917682259809226
 10
887817.40443946677260101
 20
356960.76701676455559209
 10
891474.33606495545245707
 20
361200.38410454289987683
 10
899484.77775558654684573
 20
362898.64297953818459064
 10
904084.38990270369686186
 20
367612.64910880126990378
 10
908163.46142988791689277
 20
368475.78798439702950418
 10
910592.63850569864735007
 20
370942.64411268528783694
 10
918560.05224255821667612
 20
371481.82140891219023615
 10
923789.89827031351160258
 20
367823.51299755583750084
 10
931541.03672376810573041
 20
369353.05456304689869285
 10
931174.87108944484498352
 20
365350.96360756590729579
 10
933297.73329053388442844
 20
360303.85933757206657901
 10
944460.5397890763124451
 20
358811.67748681962257251
 10
941199.38923594413790852
 20
348947.34648157918127254
 10
936827.50633913045749068
 20
348342.49330890324199572
 10
933225.53014897252433002
 20
350116.26352051366120577
 10
929596.39451218536123633
 20
344947.04314754152437672
 10
931056.79961948760319501
 20
336326.08364888257347047
 10
939757.10495656577404588
 20
329318.51819770154543221
 10
938740.82252360251732171
 20
325192.41004941379651427
 10
943055.12273907300550491
 20
315905.39706592436414212
 10
937733.45546534366440028
 20
303788.52566649077925831
 10
934926.58831824315711856
 20
303666.67720654746517539
 10
932056.30693563970271498
 20
300913.94987443432910368
 10
931664.16405304416548461
 20
297743.46021362621104345
 10
921588.69684142188634723
 20
286618.00393866241211072
 10
914105.07483284478075802
 20
283632.27233276405604556
 10
909659.91641566320322454
 20
277510.19205405394313857
 10
883719.05566164664924145
 20
261765.31256262527313083
 10
871896.08895148441661149
 20
252415.71112738273222931
 10
862578.80621423909906298
 20
235631.8839195481268689
 10
854630.73664218909107149
 20
228810.02157111201086082
 10
819074.86643148656003177
 20
215391.40943394487840123
 10
811979.59608984726946801
 20
214059.56362821042421274
 10
785960.81143000815063715
 20
201871.05692519937292673
 10
782738.87833551364019513
 20
196343.77258895497652702
 10
776255.04170934797730297
 20
197022.27842958297696896
 10
767590.79027031711302698
 20
192596.47907092989771627
 10
745567.17074639955535531
 20
161793.83984778390731663
 10
750478.08270133775658906
 20
159997.80015881682629697
 10
751861.49813896580599248
 20
160752.01345252071041614
 10
750246.12259349273517728
 20
162270.06817758220131509
 10
751674.70228919351939112
 20
162306.29917615361046046
 10
758612.14237879135180265
 20
157072.09450192053918727
 10
761360.02248020109254867
 20
156884.58190920948982239
 10
759814.00554998661391437
 20
150814.17501391001860611
 10
754532.56272170762531459
 20
148652.82038864307105541
 10
748884.37913338944781572
 20
139361.39943348040105775
 10
744169.48266722576227039
 20
135909.35644035128643736
 10
741487.48601922113448381
 20
135251.86601904095732607
 10
739180.73474694043397903
 20
138239.715951904974645
 10
743213.60744487796910107
 20
139178.44030542846303433
 10
745261.16999985196162015
 20
138021.77595944824861363
 10
750490.06322604976594448
 20
145181.10263729930738918
 10
739450.34186704468447715
 20
141818.75079530919902027
 10
736635.77981879585422575
 20
138877.42038644343847409
 10
733970.24578132212627679
 20
131438.12381953513249755
 10
721867.04131369316019118
 20
103161.89445660004275851
 10
710679.34628541534766555
 20
89368.61330604154500179
 10
706465.84149166836868972
 20
78570.40592736199323554
 10
700253.53204634448047727
 20
72727.78490850461821537
 10
681114.41546066582668573
 20
35495.68497263622703031
 10
680381.35999266267754138
 20
29673.82845033002013224
 10
671983.39911484718322754
 20
12360.66112044724286534
 10
673456.87881058198399842
 20
-1865.76115284032016461
 10
675766.47614202403929085
 20
-9074.60960021714163304
 10
684555.0028307317988947
 20
-24015.56962656858013361
 10
682396.10017677361611277
 20
-25949.33314185898052529
 10
686035.9638887302717194
 20
-35447.39254710219393019
 10
695040.29980339563917369
 20
-48954.98650034679303644
 10
703510.49641151842661202
 20
-55866.40366893809550675
 10
720121.58723341219592839
 20
-60170.78651087682374055
 10
723128.30096795235294849
 20
-62977.11725095810834318
 10
721950.03612376342061907
 20
-63920.41335461281414609
 10
727161.00923119066283107
 20
-66345.90253804670646787
 10
728042.86165992729365826
 20
-69401.40958448396122549
 10
723193.40823227900546044
 20
-71891.47776546777458861
 10
720808.57252006628550589
 20
-76335.9453859554923838
 10
715655.84510602662339807
 20
-79650.77519119826320093
 10
715743.24831076140981168
 20
-83001.94188465308980085
 10
705153.01314172928687185
 20
-86111.78236778442806099
 10
703023.64171883265953511
 20
-94347.95649559921002947
 10
694272.70126218046061695
 20
-96537.98769144336984027
 10
681496.16929504787549376
 20
-104050.20520899507391732
 10
676274.74050647229887545
 20
-110797.97978963222703896
 10
675112.80744409281760454
 20
-116379.51113585435086861
 10
671084.0419970890507102
 20
-117250.71911725010431837
 10
670060.27189964358694851
 20
-119947.68899710009281989
 10
666936.75815757841337472
 20
-120025.33276168347219937
 10
668656.80686127685476094
 20
-134570.15518688567681238
 10
661149.6309040377382189
 20
-137156.82734409012482502
 10
658560.23081149451900274
 20
-140416.21519206528319046
 10
657106.68608573242090642
 20
-145727.77354329175432213
 10
657410.40180618746671826
 20
-159888.69908221170771867
 10
652923.42868854326661676
 20
-163948.45386892734677531
 10
649344.42707751190755516
 20
-176589.42312514441437088
 10
649769.81380209920462221
 20
-182125.92416821597726084
 10
647129.14903273712843657
 20
-179347.59877450205385685
 10
645437.0917099101934582
 20
-185382.59645902042393573
 10
641818.8723581595113501
 20
-188753.46116789657389745
 10
646558.58964698924683034
 20
-196842.00688327086390927
 10
651658.38574506272561848
 20
-199304.40718346071662381
 10
655781.93404734344221652
 20
-198785.9421074568235781
 10
656227.33713772508781403
 20
-201378.44040358581696637
 10
654371.52728944818954915
 20
-203329.39114527063793503
 10
637323.87280680064577609
 20
-209980.67281288307276554
 10
632869.29711945459712297
 20
-208028.80541386644472368
 10
622718.92324931279290468
 20
-208299.52530382041004486
 10
620049.12698302965145558
 20
-210943.82112829573452473
 10
621532.42833168106153607
 20
-213839.8424408022838179
 10
609020.80346780642867088
 20
-209507.88509374880231917
 10
607517.89383481815457344
 20
-212026.69314024233608507
 10
601988.94465143966954201
 20
-211947.03062018449418247
 10
589594.64656960952561349
 20
-221751.10164438813808374
 10
587715.61387066857423633
 20
-227967.8132302507001441
 10
586071.31714894261676818
 20
-227479.24448419190593995
 10
575247.27439263474661857
 20
-234063.90835195922409184
 10
561365.32958011783193797
 20
-254438.61834267541416921
 10
558551.46423983876593411
 20
-269191.99422902631340548
 10
554667.70304827066138387
 20
-279383.40920284076128155
 10
555521.87027283781208098
 20
-284510.39326542691560462
 10
547910.61138092377223074
 20
-289548.36050711263669655
 10
541455.40885550202801824
 20
-303931.47309663984924555
 10
536761.72100971336476505
 20
-308573.86401324201142415
 10
529873.44942777557298541
 20
-308922.86945756425848231
 10
522296.6438379559549503
 20
-301251.39396472135558724
 10
515066.40836537251016125
 20
-298714.86818352446425706
 10
508823.76772394648287445
 20
-301378.03610269376076758
 10
504414.52306476037483662
 20
-300115.97138861002167687
 10
496007.90294548077508807
 20
-302688.41442391491727903
 10
492941.06356680346652865
 20
-312107.68255554948700592
 10
487201.13477286673150957
 20
-317168.33029566740151495
 10
480765.44822102540638298
 20
-318158.54853741056285799
 10
474801.15916297526564449
 20
-314754.94304102374007925
 10
472446.43285657290834934
 20
-316409.19554684933973476
 10
466263.12272265338106081
 20
-311167.02662770182359964
 10
459748.5781453515519388
 20
-312991.65366755530703813
 10
447130.98165355098899454
 20
-312628.86221019137883559
 10
429138.15336664067581296
 20
-313717.63537807675311342
 10
421758.72066494880709797
 20
-319584.33543314522830769
 10
416169.5806336616515182
 20
-319793.5996746473829262
 10
412604.50052707362920046
 20
-317188.49419269035570323
 10
409622.16525896033272147
 20
-318297.64216388342902064
 10
404878.48591956624295563
 20
-315164.24116776353912428
 10
393336.14590530068380758
 20
-317757.57192409655544907
 10
389167.7323123924434185
 20
-316645.59323132265126333
 10
383607.41296038933796808
 20
-315098.01078591181430966
 10
372788.80336817569332197
 20
-318378.67079790448769927
 10
364128.80298331432277337
 20
-316393.50583077262854204
 10
359455.08594623580574989
 20
-319067.82923911226680502
 10
349275.91621781676076353
 20
-320974.15332225081510842
 10
331756.75464580935658887
 20
-320839.08378551300847903
 10
322996.488193511555437
 20
-336648.05917185632279143
 10
317385.53252892033196986
 20
-337623.97131526726298034
 10
315123.56621626520063728
 20
-342517.02700530894799158
 10
312080.47998411126900464
 20
-344678.35495030588936061
 10
305616.95893406262621284
 20
-347035.99984387087170035
 10
289440.39054292353102937
 20
-346088.1164629640406929
 10
281418.05061611370183527
 20
-351848.64238950156141073
 10
275308.13964582746848464
 20
-352587.67137675196863711
 10
265457.08865156659157947
 20
-356761.74248075758805498
 10
260858.86154938820982352
 20
-363511.42959402123233303
 10
258677.98241145958309062
 20
-370335.54374926059972495
 10
255422.27385682187741622
 20
-372619.91532376600662246
 10
251528.50024231569841504
 20
-387874.81968651193892583
 97
     0
 75
     0
 76
     1
 98
     0
  0
ENDSEC
0
SECTION
2
OBJECTS
0
DICTIONARY
5
C
330
0
100
AcDbDictionary
281
   1
3
ACAD_GROUP
350
D
3
ACAD_LAYOUT
350
1A
3
ACAD_MLEADERSTYLE
350
43
3
ACAD_MLINESTYLE
350
17
3
ACAD_PLOTSETTINGS
350
19
3
ACAD_PLOTSTYLENAME
350
E
3
ACAD_TABLESTYLE
350
42
3
ACAD_VISUALSTYLE
350
2A
0
DICTIONARY
5
D
102
{ACAD_REACTORS
330
C
102
}
330
C
100
AcDbDictionary
281
   1
0
DICTIONARY
5
1A
102
{ACAD_REACTORS
330
C
102
}
330
C
100
AcDbDictionary
281
   1
3
Layout1
350
1E
3
Layout2
350
26
3
Model
350
22
0
DICTIONARY
5
43
102
{ACAD_REACTORS
330
C
102
}
330
C
100
AcDbDictionary
281
   1
0
DICTIONARY
5
17
102
{ACAD_REACTORS
330
C
102
}
330
C
100
AcDbDictionary
281
   1
3
Standard
350
18
0
DICTIONARY
5
19
102
{ACAD_REACTORS
330
C
102
}
330
C
100
AcDbDictionary
281
   1
0
ACDBDICTIONARYWDFLT
5
E
102
{ACAD_REACTORS
330
C
102
}
330
C
100
AcDbDictionary
281
   1
3
Normal
350
F
100
AcDbDictionaryWithDefault
340
F
0
DICTIONARY
5
42
102
{ACAD_REACTORS
330
C
102
}
330
C
100
AcDbDictionary
281
   1
0
DICTIONARY
5
2A
102
{ACAD_REACTORS
330
C
102
}
330
C
100
AcDbDictionary
281
   1
3
2dWireframe
350
2F
3
3D Hidden
350
31
3
3dWireframe
350
30
3
Basic
350
32
3
Brighten
350
36
3
ColorChange
350
3A
3
Conceptual
350
34
3
Dim
350
35
3
Facepattern
350
39
3
Flat
350
2B
3
FlatWithEdges
350
2C
3
Gouraud
350
2D
3
GouraudWithEdges
350
2E
3
Linepattern
350
38
3
Realistic
350
33
3
Thicken
350
37
0
LAYOUT
5
1E
102
{ACAD_REACTORS
330
1A
102
}
330
1A
100
AcDbPlotSettings
1

2
none_device
4

6

40
0.0
41
0.0
42
0.0
43
0.0
44
0.0
45
0.0
46
0.0
47
0.0
48
0.0
49
0.0
140
0.0
141
0.0
142
1.0
143
1.0
70
 688
72
   0
73
   0
74
   5
7

75
  16
76
   0
77
   2
78
 300
147
1.0
148
0.0
149
0.0
100
AcDbLayout
1
Layout1
70
   1
71
   1
10
0.0
20
0.0
11
12.0
21
9.0
12
0.0
22
0.0
32
0.0
14
1.000000000000000E+20
24
1.000000000000000E+20
34
1.000000000000000E+20
15
-1.000000000000000E+20
25
-1.000000000000000E+20
35
-1.000000000000000E+20
146
0.0
13
0.0
23
0.0
33
0.0
16
1.0
26
0.0
36
0.0
17
0.0
27
1.0
37
0.0
76
   0
330
1B
0
LAYOUT
5
26
102
{ACAD_REACTORS
330
1A
102
}
330
1A
100
AcDbPlotSettings
1

2
none_device
4

6

40
0.0
41
0.0
42
0.0
43
0.0
44
0.0
45
0.0
46
0.0
47
0.0
48
0.0
49
0.0
140
0.0
141
0.0
142
1.0
143
1.0
70
 688
72
   0
73
   0
74
   5
7

75
  16
76
   0
77
   2
78
 300
147
1.0
148
0.0
149
0.0
100
AcDbLayout
1
Layout2
70
   1
71
   2
10
0.0
20
0.0
11
0.0
21
0.0
12
0.0
22
0.0
32
0.0
14
0.0
24
0.0
34
0.0
15
0.0
25
0.0
35
0.0
146
0.0
13
0.0
23
0.0
33
0.0
16
1.0
26
0.0
36
0.0
17
0.0
27
1.0
37
0.0
76
   0
330
23
0
LAYOUT
5
22
102
{ACAD_REACTORS
330
1A
102
}
330
1A
100
AcDbPlotSettings
1

2
none_device
4

6

40
0.0
41
0.0
42
0.0
43
0.0
44
0.0
45
0.0
46
0.0
47
0.0
48
0.0
49
0.0
140
0.0
141
0.0
142
1.0
143
1.0
70
1712
72
   0
73
   0
74
   0
7

75
   0
76
   0
77
   2
78
 300
147
1.0
148
0.0
149
0.0
100
AcDbLayout
1
Model
70
   1
71
   0
10
0.0
20
0.0
11
12.0
21
9.0
12
0.0
22
0.0
32
0.0
14
30.0
24
49.75
34
0.0
15
130.5
25
163.1318914119703
35
0.0
146
0.0
13
0.0
23
0.0
33
0.0
16
1.0
26
0.0
36
0.0
17
0.0
27
1.0
37
0.0
76
   0
330
1F
331
29
0
MLINESTYLE
5
18
102
{ACAD_REACTORS
330
17
102
}
330
17
100
AcDbMlineStyle
2
Standard
70
   0
3

62
 256
51
90.0
52
90.0
71
   2
49
0.5
62
 256
6
BYLAYER
49
-0.5
62
 256
6
BYLAYER
0
ACDBPLACEHOLDER
5
F
102
{ACAD_REACTORS
330
E
102
}
330
E
0
VISUALSTYLE
5
2F
102
{ACAD_REACTORS
330
2A
102
}
330
2A
100
AcDbVisualStyle
2
2dWireframe
70
   4
71
   0
72
   2
73
   0
90
      0
40
-0.6
41
-30.0
62
   5
63
   7
421
16777215
74
   1
91
      4
64
   7
65
 257
75
   1
175
   1
42
1.0
92
      0
66
 257
43
1.0
76
   1
77
   6
78
   2
67
   7
79
   5
170
   0
171
   0
290
   0
174
   0
93
      1
44
0.0
173
   0
291
   0
45
0.0
1001
ACAD
1000
AcDbSavedByObjectVersion
1070
   0
0
VISUALSTYLE
5
31
102
{ACAD_REACTORS
330
2A
102
}
330
2A
100
AcDbVisualStyle
2
3D Hidden
70
   6
71
   1
72
   2
73
   2
90
      0
40
-0.6
41
-30.0
62
   5
63
   7
421
16777215
74
   2
91
      2
64
   7
65
 257
75
   2
175
   1
42
40.0
92
      0
66
 257
43
1.0
76
   1
77
   6
78
   2
67
   7
79
   3
170
   0
171
   0
290
   0
174
   0
93
      1
44
0.0
173
   0
291
   0
45
0.0
1001
ACAD
1000
AcDbSavedByObjectVersion
1070
   0
0
VISUALSTYLE
5
30
102
{ACAD_REACTORS
330
2A
102
}
330
2A
100
AcDbVisualStyle
2
3dWireframe
70
   5
71
   0
72
   2
73
   0
90
      0
40
-0.6
41
-30.0
62
   5
63
   7
421
16777215
74
   1
91
      4
64
   7
65
 257
75
   1
175
   1
42
1.0
92
      0
66
 257
43
1.0
76
   1
77
   6
78
   2
67
   7
79
   5
170
   0
171
   0
290
   0
174
   0
93
      1
44
0.0
173
   0
291
   0
45
0.0
1001
ACAD
1000
AcDbSavedByObjectVersion
1070
   0
0
VISUALSTYLE
5
32
102
{ACAD_REACTORS
330
2A
102
}
330
2A
100
AcDbVisualStyle
2
Basic
70
   7
71
   1
72
   0
73
   1
90
      0
40
-0.6
41
-30.0
62
   5
63
   7
421
16777215
74
   0
91
      4
64
   7
65
 257
75
   1
175
   1
42
1.0
92
      8
66
   7
43
1.0
76
   1
77
   6
78
   2
67
   7
79
   5
170
   0
171
   0
290
   0
174
   0
93
      1
44
0.0
173
   0
291
   1
45
0.0
1001
ACAD
1000
AcDbSavedByObjectVersion
1070
   0
0
VISUALSTYLE
5
36
102
{ACAD_REACTORS
330
2A
102
}
330
2A
100
AcDbVisualStyle
2
Brighten
70
  12
71
   2
72
   2
73
   0
90
      0
40
-0.6
41
-30.0
62
   5
63
   7
421
16777215
74
   1
91
      4
64
   7
65
 257
75
   1
175
   1
42
1.0
92
      8
66
   7
43
1.0
76
   1
77
   6
78
   2
67
   7
79
   5
170
   0
171
   0
290
   0
174
   0
93
      1
44
50.0
173
   0
291
   1
45
0.0
1001
ACAD
1000
AcDbSavedByObjectVersion
1070
   0
0
VISUALSTYLE
5
3A
102
{ACAD_REACTORS
330
2A
102
}
330
2A
100
AcDbVisualStyle
2
ColorChange
70
  16
71
   2
72
   2
73
   3
90
      0
40
-0.6
41
-30.0
62
   5
63
   8
421
8421504
74
   1
91
      4
64
   7
65
 257
75
   1
175
   1
42
1.0
92
      8
66
   8
424
8421504
43
1.0
76
   1
77
   6
78
   2
67
   7
79
   5
170
   0
171
   0
290
   0
174
   0
93
      1
44
0.0
173
   0
291
   1
45
0.0
1001
ACAD
1000
AcDbSavedByObjectVersion
1070
   0
0
VISUALSTYLE
5
34
102
{ACAD_REACTORS
330
2A
102
}
330
2A
100
AcDbVisualStyle
2
Conceptual
70
   9
71
   3
72
   2
73
   0
90
      0
40
-0.6
41
-30.0
62
   5
63
   7
421
16777215
74
   2
91
      2
64
   7
65
 257
75
   1
175
   1
42
40.0
92
      8
66
   7
43
1.0
76
   1
77
   6
78
   2
67
   7
79
   3
170
   0
171
   0
290
   0
174
   0
93
      1
44
0.0
173
   0
291
   0
45
0.0
1001
ACAD
1000
AcDbSavedByObjectVersion
1070
   0
0
VISUALSTYLE
5
35
102
{ACAD_REACTORS
330
2A
102
}
330
2A
100
AcDbVisualStyle
2
Dim
70
  11
71
   2
72
   2
73
   0
90
      0
40
-0.6
41
-30.0
62
   5
63
   7
421
16777215
74
   1
91
      4
64
   7
65
 257
75
   1
175
   1
42
1.0
92
      8
66
   7
43
1.0
76
   1
77
   6
78
   2
67
   7
79
   5
170
   0
171
   0
290
   0
174
   0
93
      1
44
-50.0
173
   0
291
   1
45
0.0
1001
ACAD
1000
AcDbSavedByObjectVersion
1070
   0
0
VISUALSTYLE
5
39
102
{ACAD_REACTORS
330
2A
102
}
330
2A
100
AcDbVisualStyle
2
Facepattern
70
  15
71
   2
72
   2
73
   0
90
      0
40
-0.6
41
-30.0
62
   5
63
   7
421
16777215
74
   1
91
      4
64
   7
65
 257
75
   1
175
   1
42
1.0
92
      8
66
   7
43
1.0
76
   1
77
   6
78
   2
67
   7
79
   5
170
   0
171
   0
290
   0
174
   0
93
      1
44
0.0
173
   0
291
   1
45
0.0
1001
ACAD
1000
AcDbSavedByObjectVersion
1070
   0
0
VISUALSTYLE
5
2B
102
{ACAD_REACTORS
330
2A
102
}
330
2A
100
AcDbVisualStyle
2
Flat
70
   0
71
   2
72
   1
73
   1
90
      2
40
-0.6
41
30.0
62
   5
63
   7
421
16777215
74
   0
91
      4
64
   7
65
 257
75
   1
175
   1
42
1.0
92
      8
66
   7
43
1.0
76
   1
77
   6
78
   2
67
   7
79
   5
170
   0
171
   0
290
   0
174
   0
93
     13
44
0.0
173
   0
291
   1
45
0.0
1001
ACAD
1000
AcDbSavedByObjectVersion
1070
   0
0
VISUALSTYLE
5
2C
102
{ACAD_REACTORS
330
2A
102
}
330
2A
100
AcDbVisualStyle
2
FlatWithEdges
70
   1
71
   2
72
   1
73
   1
90
      2
40
-0.6
41
30.0
62
   5
63
   7
421
16777215
74
   1
91
      4
64
   7
65
 257
75
   1
175
   1
42
1.0
92
      0
66
 257
43
1.0
76
   1
77
   6
78
   2
67
   7
79
   5
170
   0
171
   0
290
   0
174
   0
93
     13
44
0.0
173
   0
291
   1
45
0.0
1001
ACAD
1000
AcDbSavedByObjectVersion
1070
   0
0
VISUALSTYLE
5
2D
102
{ACAD_REACTORS
330
2A
102
}
330
2A
100
AcDbVisualStyle
2
Gouraud
70
   2
71
   2
72
   2
73
   1
90
      2
40
-0.6
41
30.0
62
   5
63
   7
421
16777215
74
   0
91
      4
64
   7
65
 257
75
   1
175
   1
42
1.0
92
      0
66
   7
43
1.0
76
   1
77
   6
78
   2
67
   7
79
   5
170
   0
171
   0
290
   0
174
   0
93
     13
44
0.0
173
   0
291
   1
45
0.0
1001
ACAD
1000
AcDbSavedByObjectVersion
1070
   0
0
VISUALSTYLE
5
2E
102
{ACAD_REACTORS
330
2A
102
}
330
2A
100
AcDbVisualStyle
2
GouraudWithEdges
70
   3
71
   2
72
   2
73
   1
90
      2
40
-0.6
41
30.0
62
   5
63
   7
421
16777215
74
   1
91
      4
64
   7
65
 257
75
   1
175
   1
42
1.0
92
      0
66
 257
43
1.0
76
   1
77
   6
78
   2
67
   7
79
   5
170
   0
171
   0
290
   0
174
   0
93
     13
44
0.0
173
   0
291
   1
45
0.0
1001
ACAD
1000
AcDbSavedByObjectVersion
1070
   0
0
VISUALSTYLE
5
38
102
{ACAD_REACTORS
330
2A
102
}
330
2A
100
AcDbVisualStyle
2
Linepattern
70
  14
71
   2
72
   2
73
   0
90
      0
40
-0.6
41
-30.0
62
   5
63
   7
421
16777215
74
   1
91
      4
64
   7
65
 257
75
   7
175
   7
42
1.0
92
      8
66
   7
43
1.0
76
   1
77
   6
78
   2
67
   7
79
   5
170
   0
171
   0
290
   0
174
   0
93
      1
44
0.0
173
   0
291
   1
45
0.0
1001
ACAD
1000
AcDbSavedByObjectVersion
1070
   0
0
VISUALSTYLE
5
33
102
{ACAD_REACTORS
330
2A
102
}
330
2A
100
AcDbVisualStyle
2
Realistic
70
   8
71
   2
72
   2
73
   0
90
      0
40
-0.6
41
-30.0
62
   5
63
   7
421
16777215
74
   1
91
      0
64
   7
65
 257
75
   1
175
   1
42
1.0
92
      8
66
   8
424
7895160
43
1.0
76
   1
77
   6
78
   2
67
   7
79
   5
170
   0
171
   0
290
   0
174
   0
93
     13
44
0.0
173
   0
291
   0
45
0.0
1001
ACAD
1000
AcDbSavedByObjectVersion
1070
   0
0
VISUALSTYLE
5
37
102
{ACAD_REACTORS
330
2A
102
}
330
2A
100
AcDbVisualStyle
2
Thicken
70
  13
71
   2
72
   2
73
   0
90
      0
40
-0.6
41
-30.0
62
   5
63
   7
421
16777215
74
   1
91
      4
64
   7
65
 257
75
   1
175
   1
42
1.0
92
     12
66
   7
43
1.0
76
   1
77
   6
78
   2
67
   7
79
   5
170
   0
171
   0
290
   0
174
   0
93
      1
44
0.0
173
   0
291
   1
45
0.0
1001
ACAD
1000
AcDbSavedByObjectVersion
1070
   0
0
ENDSEC
  0
EOF
